PrimaNota.ru - самый крупный в мире бесплатный архив песенных текстов, аккордов, табулатур и нот


Austrian Death Machine - Here Is Sub-zero Now Plain Zero - таба, видео

Регистрация Запомнить меня
Войти через:  Facebook Google Twitter Vk Yandex Mail.ru

Austrian Death Machine - Here Is Sub-zero Now Plain Zero - таба, видео

Печатать
Просмотров: 166
Sup?! hope u like the tab

Austrian Death Machine
Here is Sub-zero now plain zero

intro riff
e|------------------|-----------------------|---------------|
B|------------------|-----------------------|---------------|
G|------------------|-----------------------|---------------|
D|------------------|-----------------------|---------------|
A|-2-222-2x-2x-2~---|-----------------------|-222-2-222-222-|
D|-2-222-2x-2x-2~-x4|then on the third time-|-222-2-222-222-|
p.m  ...                                      ... . ... ...

then on the 4th n final time
e|---------|
B|---------|
G|---------|
D|---------|
A|-222-2-2-|
D|-222-2-2-|
p.m... . .

verse riffa
e|-----------------------------|
B|-----------------------------|
G|-----------------------------|
D|-----------------------------|
A|-2-222222-2-222222-3-2-3-653-|
D|-2-222222-2-222222-3-2-3-653-|x4
p.m  ......   ......

verse riffb
e|-----------------------------|
B|-----------------------------|
G|-----------------------------|
D|-----------------------------|
A|-0-000000-0-000000-1-0-1-431-|
D|-0-000000-0-000000-1-0-1-431-|x4
p.m  ......   ......

pre-chorus riffa
e|----------------|
B|----------------|
G|----------------|
D|----------------|
A|-1-111111-4-3-6-|
D|-1-111111-4-3-6-|x4
p.m  ......

then back into verse riffb 4 more times

pre-chorus riffb
e|----------------|---|----------------|
B|----------------|---|----------------|
G|----------------|---|----------------|
D|----------------|---|----------------|
A|-3-333333-6-5-8-|---|-5-555555-6-5-6-|
D|-3-333333-6-5-8-|x4-|-5-555555-6-5-6-|4x then just let the final notes ring out
p.m  ......               ......

e|---------|
B|---------|
G|---------|
D|---------|
A|-6666-66-|
D|-6666-66-|x2
p.m.... ..

breakdown!/kinda pre-chorus still
guitar 1
e|-----------------------------------|
B|-----------------------------------|
G|-----------------------------------|
D|-----------------------------------|
A|-000000000-000-0-000-0-000-000-000-|
D|-000000000-000-0-000-0-000-000-000-|
p.m......... ... . ... . ... ... ...

Guitar 2
e|-----------------------------------|
B|-----------------------------------|
G|-----------------------------------|
D|-----------------------------------|
A|-000000000-------------------------|
D|-000000000-------------------------|
p.m.........

Both guitars
e|-------------------------------|
B|-------------------------------|
G|-------------------------------|
D|-------------------------------|
A|-000000000-0-000-0-000-0-00000-|
D|-000000000-0-000-0-000-0-00000-| play all twice
p.m......... . ... . ... . .....
|----------------------D|--5---6-|
|----------------------A|6---4---|
|----------------------D|--------| play this the last time
p.m                      .   .

Chorus
e|-----------------------------|---|----------------|
B|-----------------------------|---|----------------|
G|-----------------------------|---|----------------|
D|-----------------------------|---|----------------|
A|-0-000-0x-0x-0-000-0-000-000-|---|-0-000-0x-0x-0~-|
D|-0-000-0x-0x-0-000-0-000-000-|x4-|-0-000-0x-0x-0~-|x2
p.m  ...         ... . ... ...         ...

e|-------------|
B|-------------|
G|-------------|
D|-------------|
A|-0-0-0-0-0-0-|
D|-0-0-0-0-0-0-|
p.m. . . . . .

Solo Rhythme-A
e|------------------------------------|
B|------------------------------------|
G|------------------------------------|
D|--------7-9---------------7-9-99/10-|
A|--------5-7---------------5-7-77/8--|
D|-2-2222-----222222-2-2222-----------|x4
p.m  ....     ......   ....     .

verse riffa
e|-----------------------------|
B|-----------------------------|
G|-----------------------------|
D|-----------------------------|
A|-2-222222-2-222222-3-2-3-653-|
D|-2-222222-2-222222-3-2-3-653-|x4
p.m  ...... . ......

second part of pre-chorus riffb
e|----------------|
B|----------------|
G|----------------|
D|----------------|
A|-5-555555-6-5-6-|
D|-5-555555-6-5-6-|x2
p.m  ......

verse riffa
e|-----------------------------|
B|-----------------------------|
G|-----------------------------|
D|-----------------------------|
A|-2-222222-2-222222-3-2-3-653-|
D|-2-222222-2-222222-3-2-3-653-|x4
p.m  ......   ......

pre-chorus riffb
e|----------------|---|----------------|
B|----------------|---|----------------|
G|----------------|---|----------------|
D|----------------|---|----------------|
A|-3-333333-6-5-8-|---|-5-555555-6-5-6-|
D|-3-333333-6-5-8-|x4-|-5-555555-6-5-6-|4x then just let the final notes ring out
p.m  ......               ......

Solo Rhythme-A
e|------------------------------------|
B|------------------------------------|
G|------------------------------------|
D|--------5-7---------------5-7-77/8--|
A|--------3-5---------------3-5-55/6--|
D|-0-0000-----000000-0-0000-----------|x4
p.m  ....     ......   ....     .

e|----------------|---------|
B|----------------|---------|
G|----------------|---------|
D|-8-888-8x-8x-8~-|-8888888-|
A|-6-666-6x-6x-6~-|-6666666-|
D|----------------|---------|
p.m  ...            .......

e|-------------------|
B|-------------------|
G|-------------------|
D|-8-888-8x-8x-8~-10-|
A|-6-666-6x-6x-6~-8--|
D|-------------------|
p.m  ... 

Chorus RiffB
e|----------------------------|
B|----------------------------|
G|----------------------------|
D|-7----7--7--7---------------|
A|-5----5--5--5---------------|
D|-00000000000000000000000000-|x4
p.m .... .. .. ..............

outro
guitar one
e|-----------------------|
B|-----------------------|
G|-----------------------|
D|-----------------------|
A|-0-000-0x-0x-0~-----6--|
D|-0-000-0x-0x-0~--0-----|
p.m  ...         . p.h.

Guitar two
e|-----------------------|
B|-----------------------|
G|-----------------------|
D|-7-777-7x-7x-7~--------|
A|-5-555-5x-5x-5~-----6--|
D|---------------0-------|
p.m  ...         . p.h.

e|----------------|
B|----------------|
G|----------------|
D|----------------|
A|-0-000-0x-0x-0~-|
D|-0-000-0x-0x-0~-|
p.m  ...        

Guitar two
e|----------------|
B|----------------|
G|----------------|
D|-7-777-7x-7x-7~-|
A|-5-555-5x-5x-5~-|
D|----------------|
p.m  ...        

and let ring out
any comments or questions plz e-mail me at mecca_man6969@hotmail.com or leave a comment below
thanks and enjoy!
thanks! enjoy!
Добавлено: 12.06.2013
Вам также может быть интересно:
Другие материалы по этой песне:
  • Аккорды и текст

Страница создана 12.06.2013
http://primanota.ru/austrian-death-machine/here-is-sub-zero-now-plain-zero-chords.htm
Привет, Гость.
Предлагаем пройти революционный курс по гитаре.
Подарок от PrimaNota.Ru, забирай!