PrimaNota.ru - самый крупный в мире бесплатный архив песенных текстов, аккордов, табулатур и нот


Austrian Death Machine - Come With Me If You Want To Live - таба, видео

Регистрация Запомнить меня
Войти через:  Facebook Google Twitter Vk Yandex Mail.ru

Austrian Death Machine - Come With Me If You Want To Live - таба, видео

Печатать
Просмотров: 196
         |-3-|            |-3-|                |-3-|                       
     S S S S S S S S E  S S S S S S S S    S S S S S S S S E  E  E  S S S  
E||-------------------------------------|---------------------------------|
B||-------------------------------------|---------------------------------|
G||-------------------------------------|---------------------------------|
D||-------------------------------------|---------------------------------|
A||------------8-7-5-7----------8-7-5-8-|--L---------8-7-5-7--8--7--5-7-8-|
E||--0-0-0-0-0----------0-0-0-0---------|----0-0-0-0----------------------|


      |-3-|            |-3-|                |-3-|                       
  S S S S S S S S E  S S S S S S S S    S S S S S S S S E  E  E  S S S  
-------------------------------------|---------------------------------|
-------------------------------------|---------------------------------|
-------------------------------------|---------------------------------|
-------------------------------------|---------------------------------|
------------8-7-5-7----------8-7-5-8-|--L---------8-7-5-7--8--7--5-7-8-|
--0-0-0-0-0----------0-0-0-0---------|----0-0-0-0----------------------|


    S S S S S S S S S S S S S S S S    S S S S S S S S S S E  S S E     
|-----------------------------------|---------------------------------||
|-----------------------------------|---------------------------------||
|*----------------------------------|--------------------------------*||
|*----------------------------------|--------------------------------*||
|-----------7-6---------5-7---7-8-5-|----------7-6---------7------8---||
|---0-0-0-0-----0-0-0-0-3-5-0-5-6-3-|--0-0-0-0-----0-0-0-0-5--0-0-6---||




Duration Legend
---------------
W - whole
H - half
Q - quarter
E - 8th
S - 16th
T - 32nd
X - 64th
. - note dotted
|-n-|  - n-tuplets


Tablature Legend
----------------
L - tied note
x - dead note
g - grace note
(n) - ghost note
> - accentuded note
NH - natural harmonic
AH - artificial harmonic
TH - tapped harmonic
SH - semi harmonic
PH - pitch harmonic
h - hammer on
p - pull off
b - bend
br - bendRelease
pb - preBend
pbr - preBendRelease
brb - bendReleaseBend
\n/ - tremolo bar dip
\n - tremolo bar dive
-/n - tremolo bar Release up
/n\ - tremolo bar inverted dip
/n - tremolo bar return
-\n - tremolo bar Release down
S - shift slide
s - legato slide
/ -  slide into from below or out of upwards
\ -  slide into from above or out of downwards
~ - vibrato
W - wide vibrato
tr - trill
TP - tremolo picking
T - tapping
S - slap
P - pop
< - fade in
^ - brush up
v - brush down
Добавлено: 14.06.2012
Другие материалы по этой песне:
  • Аккорды и текст

Страница создана 14.06.2012
http://primanota.ru/austrian-death-machine/come-with-me-if-you-want-to-live-chords.htm
Привет, Гость.
Предлагаем пройти революционный курс по гитаре.
Подарок от PrimaNota.Ru, забирай!