PrimaNota.ru - самый крупный в мире бесплатный архив песенных текстов, аккордов, табулатур и нот


Austin Tv - Vol Al Cielo - таба, видео

Регистрация Запомнить меня
Войти через:  Facebook Google Twitter Vk Yandex Mail.ru

Austin Tv - Vol Al Cielo - таба, видео

Печатать
Просмотров: 139
e|--------------|--------------|
B|--------------|--------------|                   
G|-7--9—-12--11-|-7--9--12--11-|
D|--------------|--------------|
A|--------------|--------------|
E|--------------|--------------|

e|-------------------|-------------------|
B|-12-10-15-12-13-10-|-12-10-15-12-13-10-|
G|-------------------|-------------------|
D|-------------------|-------------------|
A|-------------------|-------------------|
E|-------------------|-------------------|

e|-------------------|-------------------|
B|-------------------|-------------------|
G|-11-12-14-16-11-12-|-11-12-14-16-11-12-|
D|-------------------|-------------------|
A|-------------------|-------------------|
E|-------------------|-------------------|
   

e|-----5—--3-3---------|----------------3----|
B|---3---3----3--------|-----8---------7-----|
G|-5-----------4-4-555-|---10---999---7------|
D|---------------------|-10----9-----7-------|
A|---------------------|---------------------|
E|---------------------|---------------------|
                       
 Sintetizador

e|-15-15-17-14-14--15-15-17-14-14-19------17---15-20----14-15-|
B|----------------------------------15-15----13-----13-13-----|
G|------------------------------------------------------------|
D|------------------------------------------------------------|
A|------------------------------------------------------------|
E|------------------------------------------------------------|
                          
 Hay que tocar varias veces cada quinta..

   C    A    B    G   F#    G   C
e|---|----|----|----|----|----|---|
B|---|----|----|----|----|----|---|
G|-5-|-14-|-16-|-12-|-11-|-12-|-5-|
D|-5-|-14-|-16-|-12-|-11-|-12-|-5-|
A|-3-|-12-|-14-|-10-|-9--|-10-|-3-|
E|---|----|----|----|----|----|---|
Добавлено: 18.03.2012
Другие материалы по этой песне:
  • Аккорды и текст

Страница создана 18.03.2012
http://primanota.ru/austin-tv/vol-al-cielo-chords.htm
Привет, Гость.
Предлагаем пройти революционный курс по гитаре.
Подарок от PrimaNota.Ru, забирай!