PrimaNota.ru - самый крупный в мире бесплатный архив песенных текстов, аккордов, табулатур и нот


Austin Tv - Shiva - таба, бас-таба, видео

Регистрация Запомнить меня
Войти через:  Facebook Google Twitter Vk Yandex Mail.ru

Austin Tv - Shiva - таба, бас-таба, видео

Печатать
Просмотров: 157
++++++++++++++++++++
| Austin Tv- Shiva |
++++++++++++++++++++


Tuning: EADGBe


This was requested by a mexican friend of mine
I hope you enjoy!!


1.
e|-0x----0--0--0x----------5~----3333x----0~----0--0--0--0x---|
B|-0x----0--0--0x----------5~----3333x----0~----0--0--0--0x---|
G|-0x----0--0--0x----------6~----4444x----0~----0--0--0--0x---|
D|-2x----2--2--2x----7x----7~----5555x----2~----2--2--2--2x---|
A|-2x----2--2--2x----5x----7~----5555x----2~----2--2--2--2x---|
E|-0x----0--0--0x----------5~----3333x----0~----0--0--0--0x---|

2.
e|-0~----0-0x----0~---0x---|
B|-0~----0-0x----0~---0x---|
G|-0~----0-0x----0~---0x---|
D|-2~----2-2x----2~---2x---|
A|-2~----2-2x----2~---2x---|
E|-0~----0-0x----0~---0x---|

Guitar 1

3.
e|-10~-------15~--14~----------------------------------------10~---------|
B|------12~------------12~----10~----12~------------------12------12~----|
G|----------------------------------------12~----11~---12----------------|
D|-----------------------------------------------------------------------|
A|-----------------------------------------------------------------------|
E|-----------------------------------------------------------------------|

4.
e|-10~-------15~--14~----------------------------------------------------|
B|------12~------------12~----10~----12~---------------------12~--10~----|
G|----------------------------------------12~----11~----12~--------------|
D|-----------------------------------------------------------------------|
A|-----------------------------------------------------------------------|
E|-----------------------------------------------------------------------|

Guitar 2

5.
e|-5~--3~------------5~--3~--------------------5~----------------5~--------|
B|---------5~----------------3~--------3~--0~------------5~--3~------------|
G|-------------------------------------------------------------------------|
D|-------------------------------------------------------------------------|
A|-------------------------------------------------------------------------|
E|-------------------------------------------------------------------------|

6.
e|-3~--2~--3~--------10~----8~--------3~----2~--------2h3~--------|
B|----------------------------------------------------------------|
G|----------------------------------------------------------------|
D|----------------------------------------------------------------|
A|----------------------------------------------------------------|
E|----------------------------------------------------------------|

7.
e|-3~--2~--0~--------3~--2~------------3~--2~--0~---0h2-0~----3~----------|
B|---------------------------3~-------------------------------------------|
G|------------------------------------------------------------------------|
D|------------------------------------------------------------------------|
A|------------------------------------------------------------------------|
E|------------------------------------------------------------------------|

0:53

8.
e|-----------------------------------|
B|-----------------------------------|
G|-9--9----7--7----5--5----4~--------|
D|-9--9----7--7----5--5----4~--------|--x2
A|-7--7----5--5----3--3----2~--------|
E|-----------------------------------|

9.
e|-----------------------------------|
B|-3-3-33-33-3333---0-0-00-33-3333---|
G|-0-0-00-22-2222---2-2-22-00-0000---|
D|-2-2-22-00-0000---2-2-22-00-0000---|--x2
A|-2-2-22-----------0-0-00-22-2222---|
E|-0-0-00------------------33-3333---|

10.
e|-33333332-22222322-------------------33333332-22222222-77777777-55555555-|
B|-------------------33333333-33333333-------------------------------------|
G|-------------------------------------------------------------------------|
D|-------------------------------------------------------------------------|
A|-------------------------------------------------------------------------|
E|-------------------------------------------------------------------------|

11.
e|-----------------------|
B|-----------------------|
G|-----------------------|
D|-9~----7~----5~--------|
A|-7~----5~----3~--------|
E|-----------------------|

12.
e|-101010-7777777777-55-777-333-222222232-101010-77777777777-55-777-333-222222232-|
B|--------------------------------------------------------------------------------|
G|--------------------------------------------------------------------------------|
D|--------------------------------------------------------------------------------|
A|--------------------------------------------------------------------------------|
E|--------------------------------------------------------------------------------|

13.
e|-3-2-3-5~-7~-5~-3~-3-3-2-3-5~-7~-5~-3~-3-3-2-3-5~-7~-5~-7-7-7-10-7-5~-3~-5~-7-|
B|------------------------------------------------------------------------------|
G|------------------------------------------------------------------------------|
D|------------------------------------------------------------------------------|
A|------------------------------------------------------------------------------|
E|------------------------------------------------------------------------------|

14.
e|-7-7-7-7-5-5-5-5-15-15-15-15-14-14-14-14-7-7-7-7-5-5-5-5-5~--7~--3~--|
B|---------------------------------------------------------------------|
G|---------------------------------------------------------------------|
D|---------------------------------------------------------------------|
A|---------------------------------------------------------------------|
E|---------------------------------------------------------------------|

1:57

Guitar 1

15.
e|-14~----15~----12~----14~----17~----15~----12~----10~----|
B|---------------------------------------------------------|
G|---------------------------------------------------------|
D|---------------------------------------------------------|
A|---------------------------------------------------------|
E|---------------------------------------------------------|

Guitar 2

16.
e|-3~----7~----5~----10~----7~----5~----3~----2~----|
B|--------------------------------------------------|
G|--------------------------------------------------|
D|--------------------------------------------------|
A|--------------------------------------------------|
E|--------------------------------------------------|

17.
e|------------------------------------------------------------|
B|------------------------------------------------------------|
G|-9~----7-7~----5~--------------9~----7-7~----5~-------------|
D|-9~----7-7~----5~----5-5-5x----9~----7-7~----5~----55555555-|
A|-7~----5-5~----3~----5-5-5x----7~----5-5~----3~----55555555-|
E|---------------------3-3-3x------------------------33333333-|

2:46

(Those are 11s, not 1s)
18.
e|-101010--------1515-141414-----------------------------------------------|
B|--------121212-------------121212-1010-121212----------------------------|
G|----------------------------------------------121212-1111111111111112-11-|
D|-------------------------------------------------------------------------|--x4
A|-------------------------------------------------------------------------|
E|-------------------------------------------------------------------------|

19.
e|-151515-141414------151515-141414------121212-141414-1515-121212-141414-1515-|
B|---------------1515---------------1515---------------------------------------|
G|-----------------------------------------------------------------------------|
D|-----------------------------------------------------------------------------|--x2
A|-----------------------------------------------------------------------------|
E|-----------------------------------------------------------------------------|


20.
e|---------------------------------------------|
B|---------------------------------------------|
G|-9-9-9-9x----9~--9-9x----9~--9x----9~--------|
D|-9-9-9-9x----9~--9-9x----9~--9x----9~--------|
A|-7-7-7-7x----7~--7-7x----7~--7x----7~--------|
E|---------------------------------------------|



+++++++++++++++++++++++++++++++++
| RaiLeff                       |
| Underground__Dora@Hotmail.Com |
+++++++++++++++++++++++++++++++++
Добавлено: 03.07.2012
Другие материалы по этой песне:

Страница создана 07.03.2012
http://primanota.ru/austin-tv/shiva-chords.htm
Привет, Гость.
Предлагаем пройти революционный курс по гитаре.
Подарок от PrimaNota.Ru, забирай!