PrimaNota.ru - самый крупный в мире бесплатный архив песенных текстов, аккордов, табулатур и нот


Austin Tv - Satelite - таба, видео

Регистрация Запомнить меня
Войти через:  Facebook Google Twitter Vk Yandex Mail.ru

Austin Tv - Satelite - таба, видео

Печатать
Просмотров: 123
Esta tablatura se la dedico a mi amiga karen, le falta un poco a la cancion, pero 
son puras variaciones del intro, espero les guste

Intro

Gtr 1
E-----------------------------5---5---------|
B----3-------5---5----3---------------------|
G------2---2---2---2----2---2---2---2-------|(x5)
D--------0----------------0-----------------|
A-------------------------------------------|
E-------------------------------------------|

Tambien lo pueden tocar con cejilla en 5, que creo que es la manera
correcta, pero es mas facil de la otra forma, ustedes elijan...

E------------------------------5---5--------|
B-------------5---5-------------------------|
G----7----------------7---------------------|(x5)
D------7----7---7---7----7---7---7---7------|
A---------5----------------5----------------|
E-------------------------------------------|

Despues en la tercera repetición entra la guitarra 2 con esto:

Gtr 2
E----5~---------------2~--------------------|
B----5~---------------2~--------------------|
G-------------------------------------------|
D-------------------------------------------|
A-------------------------------------------|
E-------------------------------------------|

__________________________________________________________________
minuto 0:25

Gtr 2

E-------------------------------------------|
B----3-------3---3----3-------3---3---------|
G------2---2---2---2----2---2---2---2-------|
D--------0----------------0-----------------|
A-------------------------------------------|
E-------------------------------------------|

Esto se repite hasta el minuto 0:45 de la cancion

___________________________________________________________________
minuto 2:02

Gtr 2

E---x-x-x-x-x-x-x-x-x-x-x-x-x-x-x-x---------|
B---x-x-x-x-x-x-x-x-x-x-x-x-x-x-x-x---------|
G---x-x-x-x-x-x-x-x-x-x-x-x-x-x-x-x---------|(x3)
D-------------------------------------------|
A-------------------------------------------|
E-------------------------------------------|

Gtr 1

E---------------------------3-3-3-3---------|
B-------------------------------------------|
G-------------------------------------------|(x3)
D-------------------------------------------|
A-------------------------------------------|
E-------------------------------------------|

Nota: para que suene mejor hagan las mute notes en 5, 3 y por ultimo
en 2 al terminar cada repeticion la guitarra 1

___________________________________________________________________
minuto 2:17

E-5--3--2--3--5--3--2--3--5~-5~-------------|
B-------------------------------3~----------|
G-------------------------------------------|
D-------------------------------------------|
A-------------------------------------------|
E-------------------------------------------|

___________________________________________________________________
minuto 2:39 en adelante

Gtr 2

E---------------------------------------------|
B---------------------------------------------|
G-7------5------4-------12------11------9-----|
D-7-(x5)-5-(x5)-4-(x5)--12-(x4)-11-(x4)-9-(x5)|
A-5------3------2-------10-------9------7-----|
E-5------3------2-------10-------9------7-----|
|                                             |
|--------------------PM-----------------------|

Nota:hay una parte mas adelante donde se tienen que callar que
son las tres repeticiones del inicio del Outro, ahi solamente
dejen sonar el ultimo rasgueo, hasta que continue

____________________________________________________________________
minuto 2:51

E-2-3-5-5-3-2-3~-5-5-5-3-2-3-2~-5-5-5-3-2-3-|
B-------------------------------------------|
G-------------------------------------------|
D-------------------------------------------|
A-------------------------------------------|
E-------------------------------------------|

E-5-3-2-3-5-3-2-3-5-------------------------|
B-------------------------------------------|
G-------------------------------------------|
D-------------------------------------------|
A-------------------------------------------|
E-------------------------------------------|

Despues entra la guitarra con el sintetizador haciendo esto

E-5-3-2-3-5-5-3-2-3-5-3-2-5------------|
B--------------------------------------|
G--------------------------------------|
D--------------------------------------|
A--------------------------------------|
E--------------------------------------|

E-5-3-2-3-5-5-3-2-3-5-3-2-2------------|
B--------------------------------------|
G--------------------------------------|
D--------------------------------------|
A--------------------------------------|
E--------------------------------------|

minuto 3:13

En esta parte toquen las mute note poniendo su dedo en el traste 3

E-x-x-x-x-x-x-x-5--x-x-x-x-x-x-x-3--x-x-x-x-x-x-x-2|
B--------------------------------------------------|
G--------------------------------------------------|
D--------------------------------------------------|
A--------------------------------------------------|
E--------------------------------------------------|

Outro

Despues es casi lo mismo nada mas que se hace solo un mute note

E-x-x-5-x-3-x-2-x-3-x-5-5----|
B----------------------------|
G----------------------------| (x3)
D----------------------------|
A----------------------------|
E----------------------------|

E-5--3--2-3-2-5-3-2-5~~------|
B----------------------------|
G----------------------------|
D----------------------------|
A----------------------------|
E----------------------------|

E-5-3-2--3-2-3--5-5-3--------|
B----------------------------|
G----------------------------|
D----------------------------|
A----------------------------|
E----------------------------|

E-5--3--2-3-2-5-3-2----------|
B-------------------3~~------|
G----------------------------|
D----------------------------|
A----------------------------|
E----------------------------|


By: Daniel_tv
www.austintv.org
Добавлено: 10.04.2012
Другие материалы по этой песне:

Страница создана 10.04.2012
http://primanota.ru/austin-tv/satelite-chords.htm
Привет, Гость.
Предлагаем пройти революционный курс по гитаре.
Подарок от PrimaNota.Ru, забирай!