PrimaNota.ru - самый крупный в мире бесплатный архив песенных текстов, аккордов, табулатур и нот


Austin Tv - Roy Rogers - таба, видео

Регистрация Запомнить меня
Войти через:  Facebook Google Twitter Vk Yandex Mail.ru

Austin Tv - Roy Rogers - таба, видео

Печатать
Просмотров: 153
Intro:
Em Dm Cm

e-------------------------------------------------------|
b----8-6-8-5-----8-6-8---------8-6-8-10-8-6-------------|
g--5-----------7---------7-5-------------------7-5------|   X2
D-------------------------------------------------------|
A-------------------------------------------------------|
E-------------------------------------------------------|

e--8-8*8--------------------8-7----|
b-----------8-6--------6-8---------|
g-----------------9-7--------------|
D----------------------------------|
A----------------------------------|
E----------------------------------|

e----15--------------15---------------------------------------|
b---------13-12-13------13-12-13-15-10-12-13-13---------------|
g-------------------------------------------------------------|
D-------------------------------------------------------------|
A-------------------------------------------------------------|
E-------------------------------------------------------------|

e------------------------------------------------------|
b----8-6-8-5------8-6-8-------8-6-8-10-8-6-------------|
g--5-----------7---------7-5-------------------7-5-----|  X2
D------------------------------------------------------|
A------------------------------------------------------|
E------------------------------------------------------|

e--5--------------5----------------------|
b-----5-0*0*0---------3-0*0*0-I----------|
g----------------------------------------|  X3
D----------------------------------------|
A----------------------------------------|
E----------------------------------------|

e-----------------8---|
b-----------------10--|
g----5-x-7-x----------|
D----5-x-7-x----------|
A----3-x-5-x----------|
E---------------------|

C Dm F              C Dm F          F Em Dm Cm
C Dm Em             Dm Em Dm
C Dm F              Dm Em Dm
Em F Em Em          Em F Em
                    Dm Em Dm

e--5--------------5----------------------|
b-----5-0*0*0-------3-0*0*0-I------------|
g----------------------------------------|  X3
D----------------------------------------|
A----------------------------------------|
E----------------------------------------|


e-----------------8---|
b-----------------10--|
g----5-x-7-x----------|    X3
D----5-x-7-x----------|
A----3-x-5-x----------|
E---------------------|
Добавлено: 26.07.2012
Другие материалы по этой песне:
  • Аккорды и текст

Страница создана 26.07.2012
http://primanota.ru/austin-tv/roy-rogers-chords.htm
Привет, Гость.
Предлагаем пройти революционный курс по гитаре.
Подарок от PrimaNota.Ru, забирай!