PrimaNota.ru - самый крупный в мире бесплатный архив песенных текстов, аккордов, табулатур и нот


Austin Tv - Hazme Sentir - таба, видео

Регистрация Запомнить меня
Войти через:  Facebook Google Twitter Vk Yandex Mail.ru

Austin Tv - Hazme Sentir - таба, видео

Печатать
Просмотров: 156
E--7---7---7-7---7--7--7---7----7--7----7---7---
A---9---9---9-9---9--9--10--10---10-10---10--10- se repite varias veces
D----9---9-----9---9------9---9-------9----9----
G-----------------------------------------------
B-----------------------------------------------
e-----------------------------------------------

E----------------------------------------------------------+
A----------------------------------------------------------+
D----------------------------------------------------------+
G----------------------------------------------------------+
B-9--11-----9--11-12-11-9-7-6-77------9-11-12-11-9-7-6-7---+
e----------------------------------------------------------+

E-----------------------------+
A-----------------------------+
D-----------------------------+
G-----------------------------+
B----------9-11-12-11-9-11-14-+
e-----------------------------+

E-------------------------------12---------------------12---------------+
A--9-10-9-12---10-10--9-7---9-10---10-9---10-9-7----9-10--10-9---7------+
D-----------------------------------------------------------------------+
G-----------------------------------------------------------------------+
B-----------------------------------------------------------------------+
e-----------------------------------------------------------------------+


E---------------------------------------------------+
A---12-12-12-12-12-12-10-10-10-10-10-10-9-9-9-9-9-9-+
D---------------------------------------------------+
G---------------------------------------------------+
B---------------------------------------------------+
e---------------------------------------------------+

E-------------------------------------------------------12--12----------+
A-7-7-7-7-7-7-12-12-12-12-12-12-10-10-10-10-10-10---9-10-----10--9-10-9-+
D-----------------------------------------------------------------------+
G-----------------------------------------------------------------------+
B-----------------------------------------------------------------------+
e-----------------------------------------------------------------------+

E-----------------------------------------------------------------------+
A-----------------------------------------------------------------------+
D---8-9-8-9-8-9-8-9-8-9--9-11-9-11-9-11-9-11-9-11--8-9-8-9-9-8-9---13---+
G-----------------------------------------------------------------------+
B-----------------------------------------------------------------------+
e-----------------------------------------------------------------------+

(aqui no estoy seguro del ritmo ahi ya nada mas lo ajustas)
E-----------------------------------------------------------------------+
A-----------------------------------------------------------------------+
D-999-888-999-11-11-11-99999-888-14-14-14-13-13-13--12-12-12------------+
G-999-888-999-11-11-11-99999-888-14-14-14-13-13-13--12-12-12------------+
B-777-666-777-9--9--9--77777-666-12-12-12-11-11-11--9--9--9-------------+
e-----------------------------------------------------------------------+

E-----------------------------------------------------------------------+
A-----------------------------------------------------------------------+
D--666-999-11-11-11--666-999--11-11-11----------------------------------+
G--666-999-11-11-11--666-999--11-11-11----------------------------------+
B--888-777-9--9--9---888-777--9--9--9-----------------------------------+
e-----------------------------------------------------------------------+


E-----------------------------------------------------------------------+
A--10-9-7-5---4--10-9-7-5-----------------------------------------------+
D---------- 4-----------------------------------------------------------+
G-----------------------------------------------------------------------+
B-----------------------------------------------------------------------+
e-----------------------------------------------------------------------+

E-----------------------------------------------------------------------+
A---444444444-77777777-444444444-77777777--4-4/7-4/7-444444-777777------+
D-----------------------------------------------------------------------+
G-----------------------------------------------------------------------+
B-----------------------------------------------------------------------+
e-----------------------------------------------------------------------+

E-----------------------------------------------------------------------+
A-----------------------------------------------------------------------+
D-----------------------------------------------------------------------+
G-----------------------------------------------------------------------+
B-----66/7/9/11/12-12/11/9/7/6/7---9-7----------------------------------+
e-----------------------------------------------------------------------+
Добавлено: 01.04.2012
Другие материалы по этой песне:
  • Аккорды и текст

Страница создана 01.04.2012
http://primanota.ru/austin-tv/hazme-sentir-chords.htm
Привет, Гость.
Предлагаем пройти революционный курс по гитаре.
Подарок от PrimaNota.Ru, забирай!