PrimaNota.ru - самый крупный в мире бесплатный архив песенных текстов, аккордов, табулатур и нот


Austin Tv - Ana No Te Falle - таба, видео

Регистрация Запомнить меня
Войти через:  Facebook Google Twitter Vk Yandex Mail.ru

Austin Tv - Ana No Te Falle - таба, видео

Печатать
Просмотров: 174
Intro
-----
E|------------|---------------------------------|
A|-9----------|---------------------------------|
D|--11-10/6-8-|---------------------------------|
G|------------|-11-13-16-15-13—11-13-16-15-13---|
B|------------|---------------------------------|
E|------------|---------------------------------|

Piano
-----
E|-------------------------------|
A|-------------------------------|
D|-------------------------------|
G|-11-11-11-11--11-11-11-11------|
B|---9--9--9--9---9--9--9--9-----|
E|----9--9--9--9---11-11-11-11---|

Parte del fondo
----------------------------|
E|--------------------------|
A|-9-9----8-8---6-6—--4-----|
D|-----11----11----—8---4---|
G|--------------------------|
B|--------------------------|
E|--------------------------|

Guitarra
--------------------------------|
E|------------------------------|
A|-5-5-11-11-10-10-7-7-5-5------|
D|-7-7-13-13-12-12-9-9-7-7------|  x5
G|-7-7-13-13-12-12-9-9-7-7------|
B|------------------------------|
E|------------------------------|

E|-------------|
A|-10-11-13-15-|
D|-12-13-15-17-|
G|-12-13-15-17-|
B|-------------|
E|-------------|

Final
----------------|
E|--------------|
A|--------------|
D|--------------|
G|-3 veces------|
B|-16-14-13-11--|
E|--------------|

E|--------------------------------------------------------|
A|--------------------------------------------------------|
D|--------------------------------------------------------|
G|--------------------------------------------------------|
B|-9-8-4-6-8-9-11-4-6-8-9-11-9-8-11-9-4-6-8-9-16-14-13-11-|
E|--------------------------------------------------------|
Добавлено: 10.04.2012
Другие материалы по этой песне:
  • Аккорды и текст

Страница создана 10.04.2012
http://primanota.ru/austin-tv/ana-no-te-falle-chords.htm
Привет, Гость.
Предлагаем пройти революционный курс по гитаре.
Подарок от PrimaNota.Ru, забирай!