PrimaNota.ru - самый крупный в мире бесплатный архив песенных текстов, аккордов, табулатур и нот


Aurum - Contrareloj - таба, видео

Регистрация Запомнить меня
Войти через:  Facebook Google Twitter Vk Yandex Mail.ru

Aurum - Contrareloj - таба, видео

Печатать
Просмотров: 174
                Intro
                Cm fa fam  h  cm   a fa fam  h cm
cm
Es poco el tiempo y lo tenemos contado
fam
Así que escúchame con calma y luego piensa en uir
 Cm
Sabes que has hecho o lo que hemos logrado
  p
Un simple adiós no es suficiente para dejar te ir

 cm
Quizás es cierto tal vez reforzando tus labios
 fm
Solo un beso me dirás si en verdad te quieres  ir
 cm
Es que no entiendo dime lo que estas pensando
  p
Escucha no sabes lo que es estar así

   Cm fa fam             a  fa p
          Oblígame  fingir que no duele el miedo
  coro:
 Fm    cm                       fa         fa-fam      a-fa-p-fam
  Piensa bien las excusas suele ser armas  Que nunca te van muy bien
    Fm    cm                fa               fa-fam      a-fa-p-fam
   Te veré arrepentirte otra vez   Ya sera tarde  y no regresare

                      Cm fa fam  h  cm

 cm
Es poco el tiempo y lo tenemos contado
 fam
Así que escúchame con calma y luego piensa en u ir
  cm
Sabe que es has hecho o lo que hemos logrado
   p
Perdido lo suficiente y  a  hora apuesto por ti

    Cm fa fam             a  fa p
          Obliga a fingir  que no duele el miedo
coro:
Fm    cm                   fa            fa-fam      a-fa-p-fam
  Piensa bien las excusas suele ser armas Que nunca te van muy bien
Fm    cm                   fa            fa-fam      a-fa-p-fam
  Te veré arrepentirte otra vez  Se ase la tarde  y no regresare

Solo un rasgueo
Fm cm  fam     fa  cm  fam

coro:
Fm    cm                    fa             fa-fam       a-fa-p-fam
   Piensa bien las excusas suele ser armas Que nunca te van muy bien

Fm    cm                    fa              fa-fam       a-fa-p-fam
      Te veré arrepentirte otra vez Se ase la tarde  y no regresare
final:
Cm fa fam  fam x2 h x2cm x2    a fa fam  x2   h x2   cm x2   cmx2

Después de las dos veces por Ultimo un rasgueo en cm

Cm

1------------|
2------------|
3----6-------|
4----6-------|
5----4-------|
6------------|

Fa

1-------------|
2-------------|
3-------------|
4-----3-------|
5-----3-------|
6-----1-------|

Fm

1---------|
2---------|
3---------|
3---------|
4----4----|
5----4----|
6----2----|

H

1------------|
2------------|
3-----11-----|
4-----11-----|
5-----9------|
6------------|

A

1-------------|
2-------------|
3----3--------|
4----3--------|
5----1--------|
6-------------|

P

1------------|
2------------|
3------------|
4-----6------|
5-----6------|
6-----4------|

esto va al incio del coro
1-------------------------------------------------------------------|
2-------------------------------------------------------------------|
3--6655665566556655-------------------------------------------------|
4--6666666666666666--8--88----10---1010---11---1111--13---13-13-----|
5--4444444444444444--8--88----10---1010---11---1111--13---13-13-----|
6--------------------6--66----8----8--8----9----9-9--11---11-11-----|

1---------------------------------------------------------------|
2---------------------------------------------------------------|
3--6655665566556655--8--88---6--66--10----10-10---6--665--------|
4--6666666666666666--8--88---6--66--10----10-10---6--666--------|
5--4444444444444444--6--66---4--44---8----8---8---4--444--------|
6---------------------------------------------------------------|
Добавлено: 15.03.2012
Другие материалы по этой песне:
  • Аккорды и текст

Страница создана 25.02.2012
http://primanota.ru/aurum/contrareloj-chords.htm
Привет, Гость.
Предлагаем пройти революционный курс по гитаре.
Подарок от PrimaNota.Ru, забирай!