PrimaNota.ru - самый крупный в мире бесплатный архив песенных текстов, аккордов, табулатур и нот


Aurthohin - Nikrishto - таба, видео

Регистрация Запомнить меня
Войти через:  Facebook Google Twitter Vk Yandex Mail.ru

Aurthohin - Nikrishto - таба, видео

Печатать
Просмотров: 141
Уроки эстрадного вокала в Санкт-Петербурге
 Nikristho
 Aurthohin
 Tabbed By-Tanvir Ahmed(tanvirahmed7092@yahoo.com)

 Tuning-Half Step Down
 Drop D tuning

 C#-G#-C#-F#-A#-D#

 Intro-
 D-0-1-0-1-0-----0-0--1-0-1-0--4-----------
 A-0-1-0-1-0-----0-0--1-0-1-0--4-----------
 D-------------------------------------------------
 G-------------------------------------------------
 B-------------------------------------------------
 E-------------------------------------------------((X2))

 D0-1--0-1-0-1--------------------
 A0-1--0-1-0-1--------------------((X8))
 D--------------------------------
 G--------------------------------
 B--------------------------------
 E--------------------------------

 D0-0-1p0--0-1-0-1--0-0-1p0-0-1-0-1--0-0-1p0--0-1-0-1--0-0-1p0-0-4-
 A----1p0--0-1-0-1------1p0-0-1-0-1------1p0--0-1-0-1------1p0--0-4
 D-----------------------------------------------------------------
 G------------------------------------------------------------------
 B-------------------------------------------------------------------
 E--------------------------------------------------------------------((X2))

 D12p0-11p0-10p0-9p0-8-7-8p0-7p0-6p0-5p0-4p0-3p0-2-0
 A-------------------------------------------------
 D-------------------------------------------------
 G-------------------------------------------------
 B-------------------------------------------------
 E-------------------------------------------------

 D0-0---0-0-0-0---0-0---0-0-0-0-----
 A0-0---0-0-0-0---0-0---0-0-0-0-----
 D----------------------------------
 G----------------------------------
 B----------------------------------
 E----------------------------------((X2))

 VERSE-
 D0-0---0-0-0-0---0-0---0-0-0-0-----
 A0-0---0-0-0-0---0-0---0-0-0-0-----
 D----------------------------------
 G----------------------------------
 B----------------------------------
 E----------------------------------((X2))

 D-0-0-1p0-------
 A-----1p0-------
 D---------------
 G---------------
 B---------------
 E---------------((X16))

 Chorus-
 D-0------------------3--5------0------------3---5-
 A-0-----1----3-------3--5------0----1---3---3---5-
 D-------3----5----------------------3---5--------
 G-----------------------------------------------
 B-------------------------------------------------
 E------------------------------------------------

 Solo is in process...........
Добавлено: 02.08.2015
Другие материалы по этой песне:
  • Аккорды и текст

Страница создана 02.08.2015
http://primanota.ru/aurthohin/nikrishto-chords.htm
Привет, Гость.
Предлагаем пройти революционный курс по гитаре.
Подарок от PrimaNota.Ru, забирай!