PrimaNota.ru - самый крупный в мире бесплатный архив песенных текстов, аккордов, табулатур и нот


Aurthohin - Aanmone - таба, видео

Регистрация Запомнить меня
Войти через:  Facebook Google Twitter Vk Yandex Mail.ru

Aurthohin - Aanmone - таба, видео

Печатать
Просмотров: 111
Уроки эстрадного вокала в Санкт-Петербурге
Aanmone
Aurthohin
Tabbed By :tanvirahmed7170@yahoo.com


Intro:
E--------------------------------------------------------------------|
B--------------------------------------------------------------------|
G--------------------------------------------------------------------|
D----7---7----7---7---7h9-------7---7h9----9----7--------------------|
A-5----5---5----5---5------(X3)---5----5------5----5----5------------|
E--------------------------------------------------------------------|


Chords
(PC)::Power Chords

D
Jokhon chaad ghumie pore
A                     G
Adhar akash ta k fele
                              A
Shudhu ami jege thaki tomar chobi buke niye
D
Jege thaki akasher taray
A                             G
Miliye jai shob jeno kothay
                                      A
Jani ai raat sheshe Phirbe na tumi ar
(All Power Chords (PC))
D                  C#      B                      G
Tobuo keno je ashe moner majhe tomar chobi
D                   C#   B              G
Kolpona te keno je tomar hashi shuni
D                            A
Megher deshe ki akono tumi
           G
harao anmone
                     A
kobita ki lekho akono amay Bhebe
D                      A                G
bristy name jokon tomer ai shorir e

amar chowa ki pao
A                   D
bristyr sathe anmoneeee

Rest of the song Follows the same

Solo:
E-0--0--0--0--------0--------------------------------------------------|
B-0--0--0--0--------0------------------12h15--15b--15--14--------------|
G-9s11-11-11-------9----6vib-------------------------------------------|
D-0--0--0--0--------0--------------------------------------------------|
A-7s-9--9--9--(X2)--7--------------------------------------------------|
E----------------------------------------------------------------------|


E----------------------------------------------------------------------|
B----------------------------------------------------------------------|
G-13-12--11--11h12p11--9--7---6vib-------------------------------------|
D----------------------------------------------------------------------|
A----------------------------------------------------------------------|
E----------------------------------------------------------------------|

E-------------------------------------------------------------|
B----------------------------------------------7-8-10--7-8-10-|
G-------------------------------6-7-9--6-7-9------------------|
D----------------4-5-7--4-5-7---------------------------------|
A-5-7-9--5-7-9------------------------------------------------|
E-------------------------------------------------------------|

(t for triplet..Example:19t=19-19-19)

E-------------------------------------------------|
B-19t-17t--15t--14t--17t--15t--14t--14vib---------|
G-------------------------------------------------|
D-------------------------------------------------|
A-------------------------------------------------|
E-------------------------------------------------|


E----------------------------------------------------------------------|
B----------------------------------------------------------------------|
G-----14----14-------14-----17-17s19-19s20-20s21--21s1-----------------|
D-16----16-------16-----16---------------------------------------------|
A----------------------------------------------------------------------|
E----------------------------------------------------------------------|


SOLO 2

E-----------------------------------------------------------------------|
B-----------------------------------------------------------------------|
G-----------------------------------------------------------------------|
D-------------------------------------5---5----5---5----------5vib------|
A-7s9-9--7h9-9s10-9-7-9p7s5--------7----7---7---7---(X2)----------------|
E-----------------------------------------------------------------------|

E----------------------------------------------------------|
B----------------------------------------------------------|
G----------------------------------------------------------|
D7s9-7-5-7-5-4--4-5-7-4-5-7------------4-5-----------------|7(X4)
A--------------------------------4-5-7-(X4)----------------|
E----------------------------------------------------------|


E----------------------------------------------------------------------|
B----------------------------------------------------------------------|
G----------------------------------------------------------------------|
D--7-9-11-7-9-11-7-9-11--7-9-7-----------------------------------------|
A----------------------------------------------------------------------|
E----------------------------------------------------------------------|

(t for tapping)

E------------------------------------------|
B------------------------------------------|
G------------------------------------------|
D-6h8t12(X8)--6h8t14(X8)-6h8t16(X8)--------|
A------------------------------------------|
E------------------------------------------|

E-----------------------------------------------------|
B-----------------------------------------------------|
G-----------------------------------------------------|
Ds16-16-14-16-14-12-14-12-11-12-14-12-14--------------|
A-----------------------------------------------------|
E-----------------------------------------------------|

E---------------------------------------------------------------------|
B-17b-17-17-17-17b-17-17-17------17-----17-----17---------------------|
G----------------------------------14-----14-----14------14----14h16b-|
D- -------------------------------------------------------------------|
A---------------------------------------------------------------------|
E---------------------------------------------------------------------|


E---------------------------------------------------------------------|
B---------------------------------------------------------------------|
G-11-12-14-11-12-14---------------------------------------------s12---|
D------------------------10-12-14-10-12-14----------------------------|
A----------------------------------------------10-12-14-10-12-14------|
E---------------------------------------------------------------------|

E----------------------------------------------------------------|
B-15-17-19-15-17-19--14-15-17-14-15-17---------------------------|
G----------------------------------------------11-12-14-11-12-14-|
D----------------------------------------------------------------|
A----------------------------------------------------------------|
E----------------------------------------------------------------|


E-----------------------------------------|
B-----------------------------------------|
G-----------------------------------------|
D-10-12-14-10-12-14-----------------------|
A-----------------------10-12-14----------|
E-----------------------------------------|


E----------------------------------------------------------------------|
B-----------------------------------------------------------14-16--16--|b
G--------------------------------------------12-14-12-16---------------|
D------------------------12-12-14-12-12-16-----------------------------|
A12-12-12--14--12-12--16-----------------------------------------------|
E12--------------------------------------------------------------------|

(This Solo Tab Was Taken From a Cover Video)

Thanks For Watching.Don't Forget To Rate It Please
Добавлено: 10.04.2014
Другие материалы по этой песне:
  • Аккорды и текст

Страница создана 01.04.2014
http://primanota.ru/aurthohin/aanmone-chords.htm
Привет, Гость.
Предлагаем пройти революционный курс по гитаре.
Подарок от PrimaNota.Ru, забирай!