PrimaNota.ru - самый крупный в мире бесплатный архив песенных текстов, аккордов, табулатур и нот


Aurora Borealis - Crucible Of Creation - таба, видео

Регистрация Запомнить меня
Войти через:  Facebook Google Twitter Vk Yandex Mail.ru

Aurora Borealis - Crucible Of Creation - таба, видео

Печатать
Просмотров: 99
                            Crucible Of Creation                               


                                                                 Aurora Borealis
Ron Rhythm 1



          T T T T T T T T T T T T T T T T T T T T T T T T T T T T T T T T  
D||----|------------------------------------------------------------------|
A||----|------------------------------------------------------------------|
F||----|------------------------------------------------------------------|
C||----|------------------------------------------------------------------|
G||----|------------------------------------------------------------------|
D||----|--0-0-0-0-0-0-0-0-1-1-1-1-1-1-1-1-3-3-3-3-1-1-1-1-5-5-5-5-5-5-5-5-|


  T T T T T T T T T T T T T T T T T T T T T T T T T T T T T T T T  
------------------------------------------------------------------|
------------------------------------------------------------------|
------------------------------------------------------------------|
------------------------------------------------------------------|
----------7-7-7-7-7-7-7-7-----------------------------------------|
--0-0-0-0-----------------5-5-5-5-3-3-3-3-3-3-3-3-3-3-3-3-3-3-3-3-|


  T T T T T T T T T T T T T T T T T T T T T T T T T T T T T T T T  
------------------------------------------------------------------|
------------------------------------------------------------------|
------------------------------------------------------------------|
------------------------------------------------------------------|
------------------------------------------------------------------|
--0-0-0-0-0-0-0-0-1-1-1-1-1-1-1-1-3-3-3-3-1-1-1-1-5-5-5-5-5-5-5-5-|


  T T T T T T T T T T T T T T T T T T T T T T T T T T T T T T T T  
------------------------------------------------------------------|
------------------------------------------------------------------|
------------------------------------------------------------------|
------------------------------------------------------------------|
----------7-7-7-7-7-7-7-7-----------------------------------------|
--0-0-0-0-----------------5-5-5-5-3-3-3-3-3-3-3-3-3-3-3-3-3-3-3-3-|


  T T T T T T T T T T T T T T T T T T T T T T T T T T T T T T T T  
------------------------------------------------------------------|
------------------------------------------------------------------|
------------------------------------------------------------------|
------------------------------------------------------------------|
------------------------------------------------------------------|
--0-0-0-0-0-0-0-0-1-1-1-1-1-1-1-1-3-3-3-3-1-1-1-1-5-5-5-5-5-5-5-5-|


  T T T T T T T T T T T T T T T T T T T T T T T T T T T T T T T T  
------------------------------------------------------------------|
------------------------------------------------------------------|
------------------------------------------------------------------|
------------------------------------------------------------------|
----------7-7-7-7-7-7-7-7-----------------------------------------|
--0-0-0-0-----------------5-5-5-5-3-3-3-3-3-3-3-3-3-3-3-3-3-3-3-3-|


  T T T T T T T T T T T T T T T T T T T T T T T T T T T T T T T T  
------------------------------------------------------------------|
------------------------------------------------------------------|
------------------------------------------------------------------|
------------------------------------------------------------------|
------------------------------------------------------------------|
--0-0-0-0-0-0-0-0-1-1-1-1-1-1-1-1-3-3-3-3-1-1-1-1-5-5-5-5-5-5-5-5-|


  T T T T T T T T T T T T T T T T T T T T T T T T T T T T T T T T  
------------------------------------------------------------------|
------------------------------------------------------------------|
------------------------------------------------------------------|
------------------------------------------------------------------|
----------7-7-7-7-7-7-7-7-----------------------------------------|
--0-0-0-0-----------------5-5-5-5-3-3-3-3-3-3-3-3-3-3-3-3-3-3-3-3-|


  T T T T T T T T T T T T T T T T T T T T T T T T T T T T T T T T  
------------------------------------------------------------------|
------------------------------------------------------------------|
------------------------------------------------------------------|
------------------------------------------------------------------|
------------------------------------------------------------------|
--0-0-0-0-0-0-0-0-1-1-1-1-1-1-1-1-3-3-3-3-1-1-1-1-5-5-5-5-5-5-5-5-|


  T T T T T T T T T T T T T T T T E  E  E  E   
----------------------------------------------|
----------------------------------------------|
----------------------------------------------|
----------------------------------------------|
----------7-7-7-7-7-7-7-7---------5--4--5--4--|
--0-0-0-0-----------------5-5-5-5-3--2--3--2--|


  T T T T T T T T T T T T T T T T T T T T T T T T T T T T T T T T  
------------------------------------------------------------------|
------------------------------------------------------------------|
------------------------------------------------------------------|
------------------------------------------------------------------|
------------------------------------------------------------------|
--0-0-0-0-0-0-0-0-1-1-1-1-1-1-1-1-3-3-3-3-1-1-1-1-5-5-5-5-5-5-5-5-|


  T T T T T T T T T T T T T T T T T T T T T T T T T T T T T T T T  
------------------------------------------------------------------|
------------------------------------------------------------------|
------------------------------------------------------------------|
------------------------------------------------------------------|
----------7-7-7-7-7-7-7-7-----------------------------------------|
--0-0-0-0-----------------5-5-5-5-3-3-3-3-3-3-3-3-3-3-3-3-3-3-3-3-|


  T T T T T T T T T T T T T T T T T T T T T T T T T T T T T T T T  
------------------------------------------------------------------|
------------------------------------------------------------------|
------------------------------------------------------------------|
------------------------------------------------------------------|
------------------------------------------------------------------|
--0-0-0-0-0-0-0-0-1-1-1-1-1-1-1-1-3-3-3-3-1-1-1-1-5-5-5-5-5-5-5-5-|


  T T T T T T T T T T T T T T T T E  E  E  E   
----------------------------------------------|
----------------------------------------------|
----------------------------------------------|
----------------------------------------------|
----------7-7-7-7-7-7-7-7---------5--4--5--4--|
--0-0-0-0-----------------5-5-5-5-3--2--3--2--|


  T T T T T T T T T T T T T T T T T T T T T T T T T T T T T T T T  
------------------------------------------------------------------|
------------------------------------------------------------------|
------------------------------------------------------------------|
------------------------------------------------------------------|
------------------------------------------------------------------|
--0-0-0-0-0-0-0-0-1-1-1-1-1-1-1-1-3-3-3-3-1-1-1-1-5-5-5-5-5-5-5-5-|


  T T T T T T T T T T T T T T T T T T T T T T T T T T T T T T T T  
------------------------------------------------------------------|
------------------------------------------------------------------|
------------------------------------------------------------------|
------------------------------------------------------------------|
----------7-7-7-7-7-7-7-7-----------------------------------------|
--0-0-0-0-----------------5-5-5-5-3-3-3-3-3-3-3-3-3-3-3-3-3-3-3-3-|


  T T T T T T T T T T T T T T T T T T T T T T T T T T T T T T T T  
------------------------------------------------------------------|
------------------------------------------------------------------|
------------------------------------------------------------------|
--3-3-3-3---------------------------------------------------------|
----------2-2-2-2-5-5-5-5-----------------------------------------|
--------------------------2-2-2-2-2-2-2-2-3-3-3-3-2-2-2-2-3-3-3-3-|


  T T T T T T T T T T T T T T T T T T T T T T T T T T T T T T T T  
------------------------------------------------------------------|
------------------------------------------------------------------|
------------------------------------------------------------------|
--3-3-3-3---------------------------------------------------------|
----------2-2-2-2-5-5-5-5-----------------------------------------|
--------------------------2-2-2-2-2-2-2-2-3-3-3-3-1-1-1-1-1-1-1-1-|


  T T T T T T T T T T T T T T T T T T T T T T T T T T T T T T T T  
------------------------------------------------------------------|
------------------------------------------------------------------|
------------------------------------------------------------------|
--3-3-3-3---------------------------------------------------------|
----------2-2-2-2-5-5-5-5-----------------------------------------|
--------------------------2-2-2-2-2-2-2-2-3-3-3-3-2-2-2-2-3-3-3-3-|


  T T T T T T T T T T T T T T T T T T T T T T T T T T T T T T T T  
------------------------------------------------------------------|
------------------------------------------------------------------|
------------------------------------------------------------------|
--3-3-3-3---------------------------------------------------------|
----------2-2-2-2-5-5-5-5-----------------------------------------|
--------------------------2-2-2-2-2-2-2-2-3-3-3-3-1-1-1-1-1-1-1-1-|


  T T T T T T T T T T T T T T T T T T T T T T T T T T T T T T T T  
------------------------------------------------------------------|
------------------------------------------------------------------|
------------------------------------------------------------------|
--3-3-3-3---------------------------------------------------------|
----------2-2-2-2-5-5-5-5-----------------------------------------|
--------------------------2-2-2-2-2-2-2-2-3-3-3-3-2-2-2-2-3-3-3-3-|


  T T T T T T T T T T T T T T T T T T T T T T T T T T T T T T T T  
------------------------------------------------------------------|
------------------------------------------------------------------|
------------------------------------------------------------------|
--3-3-3-3---------------------------------------------------------|
----------2-2-2-2-5-5-5-5-----------------------------------------|
--------------------------2-2-2-2-2-2-2-2-3-3-3-3-1-1-1-1-1-1-1-1-|


  T T T T T T T T T T T T T T T T T T T T T T T T T T T T T T T T  
------------------------------------------------------------------|
------------------------------------------------------------------|
------------------------------------------------------------------|
--3-3-3-3---------------------------------------------------------|
----------2-2-2-2-5-5-5-5-----------------------------------------|
--------------------------2-2-2-2-2-2-2-2-3-3-3-3-2-2-2-2-3-3-3-3-|


  T T T T T T T T T T T T T T T T T T T T T T T T T T T T T T T T  
------------------------------------------------------------------|
------------------------------------------------------------------|
------------------------------------------------------------------|
--3-3-3-3---------------------------------------------------------|
----------2-2-2-2-5-5-5-5-----------------------------------------|
--------------------------2-2-2-2-2-2-2-2-3-3-3-3-1-1-1-1-1-1-1-1-|


  Q    Q    E  E  Q     
-----------------------|
-----------------------|
-----------------------|
--2----3----5--3--7----|
--2----3----5--3--7----|
--0----1----3--1--5----|


  PM                                                          
  E  T T T T T T T T T T T T T T T T T T T T T T T T T T T T  
-------------------------------------------------------------|
-------------------------------------------------------------|
-------------------------------------------------------------|
-------------------------------------------------------------|
-----7-7-7-7-7-7-7-7-----------------------------------------|
--0------------------5-5-5-5-3-3-3-3-3-3-3-3-3-3-3-3-3-3-3-3-|


  Q    Q    E  E  Q     
-----------------------|
-----------------------|
-----------------------|
--2----3----5--3--7----|
--2----3----5--3--7----|
--0----1----3--1--5----|


  PM                                                          
  E  T T T T T T T T T T T T T T T T T T T T T T T T T T T T  
-------------------------------------------------------------|
-------------------------------------------------------------|
-------------------------------------------------------------|
-------------------------------------------------------------|
-----7-7-7-7-7-7-7-7-----------------------------------------|
--0------------------5-5-5-5-3-3-3-3-3-3-3-3-3-3-3-3-3-3-3-3-|


  Q    Q    E  E  Q     
-----------------------|
-----------------------|
-----------------------|
--2----3----5--3--7----|
--2----3----5--3--7----|
--0----1----3--1--5----|


  PM                                                          
  E  T T T T T T T T T T T T T T T T T T T T T T T T T T T T  
-------------------------------------------------------------|
-------------------------------------------------------------|
-------------------------------------------------------------|
-------------------------------------------------------------|
-----7-7-7-7-7-7-7-7-----------------------------------------|
--0------------------5-5-5-5-3-3-3-3-3-3-3-3-3-3-3-3-3-3-3-3-|


  Q    Q    E  E  Q     
-----------------------|
-----------------------|
-----------------------|
--2----3----5--3--7----|
--2----3----5--3--7----|
--0----1----3--1--5----|


  PM                                                          
  E  T T T T T T T T T T T T T T T T T T T T T T T T T T T T  
-------------------------------------------------------------|
-------------------------------------------------------------|
-------------------------------------------------------------|
-------------------------------------------------------------|
-----7-7-7-7-7-7-7-7-----------------------------------------|
--0------------------5-5-5-5-3-3-3-3-3-3-3-3-3-3-3-3-3-3-3-3-|


  T T T T T T T T T T T T T T T T T T T T T T T T T T T T T T T T  
------------------------------------------------------------------|
------------------------------------------------------------------|
------------------------------------------------------------------|
------------------------------------------------------------------|
------------------------------------------------------------------|
--8-8-8-8-7-7-7-7-8-8-8-8-7-7-7-7-6-6-6-6-5-5-5-5-6-6-6-6-5-5-5-5-|


                                                  PM PM  
  T T T T T T T T T T T T T T T T T T T T T T T T E  E   
--------------------------------------------------------|
--------------------------------------------------------|
--------------------------------------------------------|
--------------------------------------------------------|
--------------------------------------------------3--3--|
--8-8-8-8-7-7-7-7-8-8-8-8-7-7-7-7-6-6-6-6-5-5-5-5-1--1--|


  T T T T T T T T T T T T T T T T T T T T T T T T T T T T T T T T  
------------------------------------------------------------------|
------------------------------------------------------------------|
------------------------------------------------------------------|
------------------------------------------------------------------|
------------------------------------------------------------------|
--8-8-8-8-7-7-7-7-8-8-8-8-7-7-7-7-6-6-6-6-5-5-5-5-6-6-6-6-5-5-5-5-|


                                                  PM PM PM  
  T T T T T T T T T T T T T T T T T T T T T T T T S  S  E   
-----------------------------------------------------------|
-----------------------------------------------------------|
-----------------------------------------------------------|
-----------------------------------------------------------|
--------------------------------------------------7--5--3--|
--8-8-8-8-7-7-7-7-8-8-8-8-7-7-7-7-6-6-6-6-5-5-5-5-5--3--1--|


  T T T T T T T T T T T T T T T T T T T T T T T T T T T T T T T T  
------------------------------------------------------------------|
------------------------------------------------------------------|
------------------------------------------------------------------|
------------------------------------------------------------------|
------------------------------------------------------------------|
--8-8-8-8-7-7-7-7-8-8-8-8-7-7-7-7-6-6-6-6-5-5-5-5-6-6-6-6-5-5-5-5-|


                                                  PM PM  
  T T T T T T T T T T T T T T T T T T T T T T T T E  E   
--------------------------------------------------------|
--------------------------------------------------------|
--------------------------------------------------------|
--------------------------------------------------------|
--------------------------------------------------3--3--|
--8-8-8-8-7-7-7-7-8-8-8-8-7-7-7-7-6-6-6-6-5-5-5-5-1--1--|


  T T T T T T T T T T T T T T T T T T T T T T T T T T T T T T T T  
------------------------------------------------------------------|
------------------------------------------------------------------|
------------------------------------------------------------------|
------------------------------------------------------------------|
------------------------------------------------------------------|
--8-8-8-8-7-7-7-7-8-8-8-8-7-7-7-7-6-6-6-6-5-5-5-5-6-6-6-6-5-5-5-5-|


                                                    PH     
  T T T T T T T T T T T T T T T T T T T T T T T T   Q      
----------------------------------------------------------|
----------------------------------------------------------|
----------------------------------------------------------|
----------------------------------------------------------|
----------------------------------------------------------|
--8-8-8-8-7-7-7-7-8-8-8-8-7-7-7-7-6-6-6-6-5-5-5-5-<>1~----|


  Q    Q    E  E  Q     
-----------------------|
-----------------------|
-----------------------|
--2----3----5--3--7----|
--2----3----5--3--7----|
--0----1----3--1--5----|


  PM                                                          
  E  T T T T T T T T T T T T T T T T T T T T T T T T T T T T  
-------------------------------------------------------------|
-------------------------------------------------------------|
-------------------------------------------------------------|
-------------------------------------------------------------|
-----7-7-7-7-7-7-7-7-----------------------------------------|
--0------------------5-5-5-5-3-3-3-3-3-3-3-3-3-3-3-3-3-3-3-3-|


  Q    Q    E  E  Q     
-----------------------|
-----------------------|
-----------------------|
--2----3----5--3--7----|
--2----3----5--3--7----|
--0----1----3--1--5----|


  PM                                                          
  E  T T T T T T T T T T T T T T T T T T T T T T T T T T T T  
-------------------------------------------------------------|
-------------------------------------------------------------|
-------------------------------------------------------------|
-------------------------------------------------------------|
-----7-7-7-7-7-7-7-7-----------------------------------------|
--0------------------5-5-5-5-3-3-3-3-3-3-3-3-3-3-3-3-3-3-3-3-|


  Q    Q    E  E  Q     
-----------------------|
-----------------------|
-----------------------|
--2----3----5--3--7----|
--2----3----5--3--7----|
--0----1----3--1--5----|


  PM                                                          
  E  T T T T T T T T T T T T T T T T T T T T T T T T T T T T  
-------------------------------------------------------------|
-------------------------------------------------------------|
-------------------------------------------------------------|
-------------------------------------------------------------|
-----7-7-7-7-7-7-7-7-----------------------------------------|
--0------------------5-5-5-5-3-3-3-3-3-3-3-3-3-3-3-3-3-3-3-3-|


  Q    Q    E  E  Q     
-----------------------|
-----------------------|
-----------------------|
--2----3----5--3--7----|
--2----3----5--3--7----|
--0----1----3--1--5----|


  PM                                                          
  E  T T T T T T T T T T T T T T T T T T T T T T T T T T T T  
-------------------------------------------------------------|
-------------------------------------------------------------|
-------------------------------------------------------------|
-------------------------------------------------------------|
-----7-7-7-7-7-7-7-7-----------------------------------------|
--0------------------5-5-5-5-3-3-3-3-3-3-3-3-3-3-3-3-3-3-3-3-|


  W                   Q.     Q    Q    E     W                 
-------------------|----------------------|-------------------|
-------------------|----------------------|-------------------|
-------------------|----------------------|-------------------|
--7----------------|--3------2----3----2--|--7----------------|
--7----------------|--3------2----3----2--|--7----------------|
--5----------------|--1------0----1----0--|--5----------------|


   Q.     Q    T T T T T T T T T T T T    W                 
---------------------------------------|-------------------|
---------------------------------------|-------------------|
--10------9----------------------------|-------------------|
---------------------------------------|--7----------------|
---8------7----3-3-3-3-3-3-3-3-3-3-3-3-|--7----------------|
---------------------------------------|--5----------------|


  Q.     Q    Q    E     W                 
----------------------|-------------------|
----------------------|-------------------|
----------------------|-------------------|
--3------2----3----2--|--7----------------|
--3------2----3----2--|--7----------------|
--1------0----1----0--|--5----------------|


   Q.     Q    T T T T T T T T T T T T    W                 
---------------------------------------|-------------------|
---------------------------------------|-------------------|
--10------9----------------------------|-------------------|
---------------------------------------|--7----------------|
---8------7----3-3-3-3-3-3-3-3-3-3-3-3-|--7----------------|
---------------------------------------|--5----------------|


  Q.     Q    Q    E     W                 
----------------------|-------------------|
----------------------|-------------------|
----------------------|-------------------|
--3------2----3----2--|--7----------------|
--3------2----3----2--|--7----------------|
--1------0----1----0--|--5----------------|


  T T T T T T T T T T T T T T T T T T T T T T T T T T T T T T T T  
------------------------------------------------------------------|
------------------------------------------------------------------|
------------------------------------------------------------------|
------------------------------------------------------------------|
--8-8-8-8-8-8-8-8-8-8-7-7-7-7-7-7-7-7-7-7-3-3-3-3-3-3-3-3-3-3-3-3-|
------------------------------------------------------------------|


  W                   Q.     Q    Q    E     W                 
-------------------|----------------------|-------------------|
-------------------|----------------------|-------------------|
-------------------|----------------------|-------------------|
--7----------------|--3------2----3----2--|--7----------------|
--7----------------|--3------2----3----2--|--7----------------|
--5----------------|--1------0----1----0--|--5----------------|


  T T T T T T T T T T T T T T T T T T T T T T T T T T T T T T T T  
------------------------------------------------------------------|
------------------------------------------------------------------|
------------------------------------------------------------------|
------------------------------------------------------------------|
--8-8-8-8-8-8-8-8-8-8-7-7-7-7-7-7-7-7-7-7-3-3-3-3-3-3-3-3-3-3-3-3-|
------------------------------------------------------------------|


  T T T T T T T T T T T T T T T T T T T T T T T T T T T T T T T T  
------------------------------------------------------------------|
------------------------------------------------------------------|
------------------------------------------------------------------|
------------------------------------------------------------------|
------------------------------------------------------------------|
--0-0-0-0-0-0-0-0-1-1-1-1-1-1-1-1-3-3-3-3-1-1-1-1-5-5-5-5-5-5-5-5-|


  T T T T T T T T T T T T T T T T T T T T T T T T T T T T T T T T  
------------------------------------------------------------------|
------------------------------------------------------------------|
------------------------------------------------------------------|
------------------------------------------------------------------|
----------7-7-7-7-7-7-7-7-----------------------------------------|
--0-0-0-0-----------------5-5-5-5-3-3-3-3-3-3-3-3-3-3-3-3-3-3-3-3-|


  T T T T T T T T T T T T T T T T T T T T T T T T T T T T T T T T  
------------------------------------------------------------------|
------------------------------------------------------------------|
------------------------------------------------------------------|
------------------------------------------------------------------|
------------------------------------------------------------------|
--0-0-0-0-0-0-0-0-1-1-1-1-1-1-1-1-3-3-3-3-1-1-1-1-5-5-5-5-5-5-5-5-|


  T T T T T T T T T T T T T T T T T T T T T T T T T T T T T T T T  
------------------------------------------------------------------|
------------------------------------------------------------------|
------------------------------------------------------------------|
------------------------------------------------------------------|
----------7-7-7-7-7-7-7-7-----------------------------------------|
--0-0-0-0-----------------5-5-5-5-3-3-3-3-3-3-3-3-3-3-3-3-3-3-3-3-|


  T T T T T T T T T T T T T T T T T T T T T T T T T T T T T T T T  
------------------------------------------------------------------|
------------------------------------------------------------------|
------------------------------------------------------------------|
------------------------------------------------------------------|
------------------------------------------------------------------|
--8-8-8-8-7-7-7-7-8-8-8-8-7-7-7-7-6-6-6-6-5-5-5-5-6-6-6-6-5-5-5-5-|


                                                  PM PM  
  T T T T T T T T T T T T T T T T T T T T T T T T E  E   
--------------------------------------------------------|
--------------------------------------------------------|
--------------------------------------------------------|
--------------------------------------------------------|
--------------------------------------------------3--3--|
--8-8-8-8-7-7-7-7-8-8-8-8-7-7-7-7-6-6-6-6-5-5-5-5-1--1--|


  T T T T T T T T T T T T T T T T T T T T T T T T T T T T T T T T  
------------------------------------------------------------------|
------------------------------------------------------------------|
------------------------------------------------------------------|
------------------------------------------------------------------|
------------------------------------------------------------------|
--8-8-8-8-7-7-7-7-8-8-8-8-7-7-7-7-6-6-6-6-5-5-5-5-6-6-6-6-5-5-5-5-|


                                                  PM PM PM  
  T T T T T T T T T T T T T T T T T T T T T T T T S  S  E   
-----------------------------------------------------------|
-----------------------------------------------------------|
-----------------------------------------------------------|
-----------------------------------------------------------|
--------------------------------------------------7--5--3--|
--8-8-8-8-7-7-7-7-8-8-8-8-7-7-7-7-6-6-6-6-5-5-5-5-5--3--1--|


  T T T T T T T T T T T T T T T T T T T T T T T T T T T T T T T T  
------------------------------------------------------------------|
------------------------------------------------------------------|
------------------------------------------------------------------|
------------------------------------------------------------------|
------------------------------------------------------------------|
--8-8-8-8-7-7-7-7-8-8-8-8-7-7-7-7-6-6-6-6-5-5-5-5-6-6-6-6-5-5-5-5-|


                                                  PM PM  
  T T T T T T T T T T T T T T T T T T T T T T T T E  E   
--------------------------------------------------------|
--------------------------------------------------------|
--------------------------------------------------------|
--------------------------------------------------------|
--------------------------------------------------3--3--|
--8-8-8-8-7-7-7-7-8-8-8-8-7-7-7-7-6-6-6-6-5-5-5-5-1--1--|


  T T T T T T T T T T T T T T T T T T T T T T T T T T T T T T T T  
------------------------------------------------------------------|
------------------------------------------------------------------|
------------------------------------------------------------------|
------------------------------------------------------------------|
------------------------------------------------------------------|
--8-8-8-8-7-7-7-7-8-8-8-8-7-7-7-7-6-6-6-6-5-5-5-5-6-6-6-6-5-5-5-5-|


                                                    PH     
  T T T T T T T T T T T T T T T T T T T T T T T T   Q      
----------------------------------------------------------|
----------------------------------------------------------|
----------------------------------------------------------|
----------------------------------------------------------|
----------------------------------------------------------|
--8-8-8-8-7-7-7-7-8-8-8-8-7-7-7-7-6-6-6-6-5-5-5-5-<>1~----|


  T T T T T T T T T T T T T T T T T T T T T T T T T T T T T T T T  
------------------------------------------------------------------|
------------------------------------------------------------------|
------------------------------------------------------------------|
------------------------------------------------------------------|
------------------------------------------------------------------|
--0-0-0-0-0-0-0-0-1-1-1-1-1-1-1-1-3-3-3-3-1-1-1-1-5-5-5-5-5-5-5-5-|


  T T T T T T T T T T T T T T T T T T T T T T T T T T T T T T T T  
------------------------------------------------------------------|
------------------------------------------------------------------|
------------------------------------------------------------------|
------------------------------------------------------------------|
----------7-7-7-7-7-7-7-7-----------------------------------------|
--0-0-0-0-----------------5-5-5-5-3-3-3-3-3-3-3-3-3-3-3-3-3-3-3-3-|


  T T T T T T T T T T T T T T T T T T T T T T T T T T T T T T T T  
------------------------------------------------------------------|
------------------------------------------------------------------|
------------------------------------------------------------------|
------------------------------------------------------------------|
------------------------------------------------------------------|
--0-0-0-0-0-0-0-0-1-1-1-1-1-1-1-1-3-3-3-3-1-1-1-1-5-5-5-5-5-5-5-5-|


  T T T T T T T T T T T T T T T T T T T T T T T T T T T T T T T T  
------------------------------------------------------------------|
------------------------------------------------------------------|
------------------------------------------------------------------|
------------------------------------------------------------------|
----------7-7-7-7-7-7-7-7-----------------------------------------|
--0-0-0-0-----------------5-5-5-5-3-3-3-3-3-3-3-3-3-3-3-3-3-3-3-3-|


  T T T T T T T T T T T T T T T T T T T T T T T T T T T T T T T T  
------------------------------------------------------------------|
------------------------------------------------------------------|
------------------------------------------------------------------|
------------------------------------------------------------------|
------------------------------------------------------------------|
--0-0-0-0-0-0-0-0-1-1-1-1-1-1-1-1-3-3-3-3-1-1-1-1-5-5-5-5-5-5-5-5-|


  T T T T T T T T T T T T T T T T T T T T T T T T T T T T T T T T  
------------------------------------------------------------------|
------------------------------------------------------------------|
------------------------------------------------------------------|
------------------------------------------------------------------|
----------7-7-7-7-7-7-7-7-----------------------------------------|
--0-0-0-0-----------------5-5-5-5-3-3-3-3-3-3-3-3-3-3-3-3-3-3-3-3-|


  T T T T T T T T T T T T T T T T T T T T T T T T T T T T T T T T  
------------------------------------------------------------------|
------------------------------------------------------------------|
------------------------------------------------------------------|
------------------------------------------------------------------|
------------------------------------------------------------------|
--0-0-0-0-0-0-0-0-1-1-1-1-1-1-1-1-3-3-3-3-1-1-1-1-5-5-5-5-5-5-5-5-|


  T T T T T T T T T T T T T T T T T T T T T T T T T T T T T T T T  
------------------------------------------------------------------|
------------------------------------------------------------------|
------------------------------------------------------------------|
------------------------------------------------------------------|
----------7-7-7-7-7-7-7-7-----------------------------------------|
--0-0-0-0-----------------5-5-5-5-3-3-3-3-3-3-3-3-3-3-3-3-3-3-3-3-|


  T T T T T T T T T T T T T T T T T T T T T T T T T T T T T T T T  
------------------------------------------------------------------|
------------------------------------------------------------------|
------------------------------------------------------------------|
------------------------------------------------------------------|
------------------------------------------------------------------|
--0-0-0-0-0-0-0-0-1-1-1-1-1-1-1-1-3-3-3-3-1-1-1-1-5-5-5-5-5-5-5-5-|


  T T T T T T T T T T T T T T T T E  E  E  E   
----------------------------------------------|
----------------------------------------------|
----------------------------------------------|
----------------------------------------------|
----------7-7-7-7-7-7-7-7---------5--4--5--4--|
--0-0-0-0-----------------5-5-5-5-3--2--3--2--|


  T T T T T T T T T T T T T T T T T T T T T T T T T T T T T T T T  
------------------------------------------------------------------|
------------------------------------------------------------------|
------------------------------------------------------------------|
------------------------------------------------------------------|
------------------------------------------------------------------|
--0-0-0-0-0-0-0-0-1-1-1-1-1-1-1-1-3-3-3-3-1-1-1-1-5-5-5-5-5-5-5-5-|


  T T T T T T T T T T T T T T T T T T T T T T T T T T T T T T T T  
------------------------------------------------------------------|
------------------------------------------------------------------|
------------------------------------------------------------------|
------------------------------------------------------------------|
----------7-7-7-7-7-7-7-7-----------------------------------------|
--0-0-0-0-----------------5-5-5-5-3-3-3-3-3-3-3-3-3-3-3-3-3-3-3-3-|


  T T T T T T T T T T T T T T T T T T T T T T T T T T T T T T T T  
------------------------------------------------------------------|
------------------------------------------------------------------|
------------------------------------------------------------------|
------------------------------------------------------------------|
------------------------------------------------------------------|
--0-0-0-0-0-0-0-0-1-1-1-1-1-1-1-1-3-3-3-3-1-1-1-1-5-5-5-5-5-5-5-5-|


  T T T T T T T T T T T T T T T T E  E  E  E   
----------------------------------------------|
----------------------------------------------|
----------------------------------------------|
----------------------------------------------|
----------7-7-7-7-7-7-7-7---------5--4--5--4--|
--0-0-0-0-----------------5-5-5-5-3--2--3--2--|


  T T T T T T T T T T T T T T T T T T T T T T T T T T T T T T T T  
------------------------------------------------------------------|
------------------------------------------------------------------|
------------------------------------------------------------------|
------------------------------------------------------------------|
------------------------------------------------------------------|
--0-0-0-0-0-0-0-0-1-1-1-1-1-1-1-1-3-3-3-3-1-1-1-1-5-5-5-5-5-5-5-5-|


  T T T T T T T T T T T T T T T T T T T T T T T T T T T T T T T T  
------------------------------------------------------------------|
------------------------------------------------------------------|
------------------------------------------------------------------|
------------------------------------------------------------------|
----------7-7-7-7-7-7-7-7-----------------------------------------|
--0-0-0-0-----------------5-5-5-5-3-3-3-3-3-3-3-3-3-3-3-3-3-3-3-3-|


  T T T T T T T T T T T T T T T T T T T T T T T T T T T T T T T T  
------------------------------------------------------------------|
------------------------------------------------------------------|
------------------------------------------------------------------|
--3-3-3-3---------------------------------------------------------|
----------2-2-2-2-5-5-5-5-----------------------------------------|
--------------------------2-2-2-2-2-2-2-2-3-3-3-3-2-2-2-2-3-3-3-3-|


  T T T T T T T T T T T T T T T T T T T T T T T T T T T T T T T T  
------------------------------------------------------------------|
------------------------------------------------------------------|
------------------------------------------------------------------|
--3-3-3-3---------------------------------------------------------|
----------2-2-2-2-5-5-5-5-----------------------------------------|
--------------------------2-2-2-2-2-2-2-2-3-3-3-3-1-1-1-1-1-1-1-1-|


  T T T T T T T T T T T T T T T T T T T T T T T T T T T T T T T T  
------------------------------------------------------------------|
------------------------------------------------------------------|
------------------------------------------------------------------|
--3-3-3-3---------------------------------------------------------|
----------2-2-2-2-5-5-5-5-----------------------------------------|
--------------------------2-2-2-2-2-2-2-2-3-3-3-3-2-2-2-2-3-3-3-3-|


  T T T T T T T T T T T T T T T T T T T T T T T T T T T T T T T T  
------------------------------------------------------------------|
------------------------------------------------------------------|
------------------------------------------------------------------|
--3-3-3-3---------------------------------------------------------|
----------2-2-2-2-5-5-5-5-----------------------------------------|
--------------------------2-2-2-2-2-2-2-2-3-3-3-3-1-1-1-1-1-1-1-1-|


  T T T T T T T T T T T T T T T T T T T T T T T T T T T T T T T T  
------------------------------------------------------------------|
------------------------------------------------------------------|
------------------------------------------------------------------|
--3-3-3-3---------------------------------------------------------|
----------2-2-2-2-5-5-5-5-----------------------------------------|
--------------------------2-2-2-2-2-2-2-2-3-3-3-3-2-2-2-2-3-3-3-3-|


  T T T T T T T T T T T T T T T T T T T T T T T T T T T T T T T T  
------------------------------------------------------------------|
------------------------------------------------------------------|
------------------------------------------------------------------|
--3-3-3-3---------------------------------------------------------|
----------2-2-2-2-5-5-5-5-----------------------------------------|
--------------------------2-2-2-2-2-2-2-2-3-3-3-3-1-1-1-1-1-1-1-1-|


  T T T T T T T T T T T T T T T T T T T T T T T T T T T T T T T T  
------------------------------------------------------------------|
------------------------------------------------------------------|
------------------------------------------------------------------|
--3-3-3-3---------------------------------------------------------|
----------2-2-2-2-5-5-5-5-----------------------------------------|
--------------------------2-2-2-2-2-2-2-2-3-3-3-3-2-2-2-2-3-3-3-3-|


  T T T T T T T T T T T T T T T T T T T T T T T T T T T T T T T T  
------------------------------------------------------------------|
------------------------------------------------------------------|
------------------------------------------------------------------|
--3-3-3-3---------------------------------------------------------|
----------2-2-2-2-5-5-5-5-----------------------------------------|
--------------------------2-2-2-2-2-2-2-2-3-3-3-3-1-1-1-1-1-1-1-1-|


  Q    Q    E  E  Q     
-----------------------|
-----------------------|
-----------------------|
--2----3----5--3--7----|
--2----3----5--3--7----|
--0----1----3--1--5----|


  PM                                                          
  E  T T T T T T T T T T T T T T T T T T T T T T T T T T T T  
-------------------------------------------------------------|
-------------------------------------------------------------|
-------------------------------------------------------------|
-------------------------------------------------------------|
-----7-7-7-7-7-7-7-7-----------------------------------------|
--0------------------5-5-5-5-3-3-3-3-3-3-3-3-3-3-3-3-3-3-3-3-|


  Q    Q    E  E  Q     
-----------------------|
-----------------------|
-----------------------|
--2----3----5--3--7----|
--2----3----5--3--7----|
--0----1----3--1--5----|


  PM                                                          
  E  T T T T T T T T T T T T T T T T T T T T T T T T T T T T  
-------------------------------------------------------------|
-------------------------------------------------------------|
-------------------------------------------------------------|
-------------------------------------------------------------|
-----7-7-7-7-7-7-7-7-----------------------------------------|
--0------------------5-5-5-5-3-3-3-3-3-3-3-3-3-3-3-3-3-3-3-3-|


  Q    Q    E  E  Q     
-----------------------|
-----------------------|
-----------------------|
--2----3----5--3--7----|
--2----3----5--3--7----|
--0----1----3--1--5----|


  PM                                                          
  E  T T T T T T T T T T T T T T T T T T T T T T T T T T T T  
-------------------------------------------------------------|
-------------------------------------------------------------|
-------------------------------------------------------------|
-------------------------------------------------------------|
-----7-7-7-7-7-7-7-7-----------------------------------------|
--0------------------5-5-5-5-3-3-3-3-3-3-3-3-3-3-3-3-3-3-3-3-|


  Q    Q    E  E  Q     
-----------------------|
-----------------------|
-----------------------|
--2----3----5--3--7----|
--2----3----5--3--7----|
--0----1----3--1--5----|


  PM                                                          
  E  T T T T T T T T T T T T T T T T T T T T T T T T T T T T  
-------------------------------------------------------------|
-------------------------------------------------------------|
-------------------------------------------------------------|
-------------------------------------------------------------|
-----7-7-7-7-7-7-7-7-----------------------------------------|
--0------------------5-5-5-5-3-3-3-3-3-3-3-3-3-3-3-3-3-3-3-3-|


            PM                                          PM          
  Q    Q    E  E  Q       W                   Q    Q    E  E  Q     
-----------------------|-------------------|-----------------------|
-----------------------|-------------------|-----------------------|
-----------------------|-------------------|-----------------------|
--3----3-------5--L----|--L----------------|--3----3-------5--L----|
--3----3-------5--L----|--L----------------|--3----3-------5--L----|
--1----1----0--3--L----|--L----------------|--1----1----0--3--L----|


                                PM                              
  W                   Q    Q    E  E  Q       W                 
-------------------|-----------------------|-------------------|
-------------------|-----------------------|-------------------|
-------------------|-----------------------|-------------------|
--L----------------|--3----3-------5--L----|--L----------------|
--L----------------|--3----3-------5--L----|--L----------------|
--L----------------|--1----1----0--3--L----|--L----------------|


            PM                              
  Q    Q    E  E  Q       W                 
-----------------------|-------------------|
-----------------------|-------------------|
-----------------------|-------------------|
--3----3-------5--L----|--L----------------|
--3----3-------5--L----|--L----------------|
--1----1----0--3--L----|--L----------------|


  T T T T T T T T T T T T T T T T T T T T T T T T T T T T T T T T  
------------------------------------------------------------------|
------------------------------------------------------------------|
------------------------------------------------------------------|
------------------------------------------------------------------|
------------------------------------------------------------------|
--0-0-0-0-0-0-0-0-1-1-1-1-1-1-1-1-3-3-3-3-1-1-1-1-5-5-5-5-5-5-5-5-|


  T T T T T T T T T T T T T T T T T T T T T T T T T T T T T T T T  
------------------------------------------------------------------|
------------------------------------------------------------------|
------------------------------------------------------------------|
------------------------------------------------------------------|
----------7-7-7-7-7-7-7-7-----------------------------------------|
--0-0-0-0-----------------5-5-5-5-3-3-3-3-3-3-3-3-3-3-3-3-3-3-3-3-|


  T T T T T T T T T T T T T T T T T T T T T T T T T T T T T T T T  
------------------------------------------------------------------|
------------------------------------------------------------------|
------------------------------------------------------------------|
------------------------------------------------------------------|
------------------------------------------------------------------|
--0-0-0-0-0-0-0-0-1-1-1-1-1-1-1-1-3-3-3-3-1-1-1-1-5-5-5-5-5-5-5-5-|


  T T T T T T T T T T T T T T T T T T T T T T T T T T T T T T T T  
------------------------------------------------------------------|
------------------------------------------------------------------|
------------------------------------------------------------------|
------------------------------------------------------------------|
----------7-7-7-7-7-7-7-7-----------------------------------------|
--0-0-0-0-----------------5-5-5-5-3-3-3-3-3-3-3-3-3-3-3-3-3-3-3-3-|


  T T T T T T T T T T T T T T T T T T T T T T T T T T T T T T T T  
------------------------------------------------------------------|
------------------------------------------------------------------|
------------------------------------------------------------------|
------------------------------------------------------------------|
------------------------------------------------------------------|
--0-0-0-0-0-0-0-0-1-1-1-1-1-1-1-1-3-3-3-3-1-1-1-1-5-5-5-5-5-5-5-5-|


  T T T T T T T T T T T T T T T T T T T T T T T T T T T T T T T T  
------------------------------------------------------------------|
------------------------------------------------------------------|
------------------------------------------------------------------|
------------------------------------------------------------------|
----------7-7-7-7-7-7-7-7-----------------------------------------|
--0-0-0-0-----------------5-5-5-5-3-3-3-3-3-3-3-3-3-3-3-3-3-3-3-3-|


  T T T T T T T T T T T T T T T T T T T T T T T T T T T T T T T T  
------------------------------------------------------------------|
------------------------------------------------------------------|
------------------------------------------------------------------|
------------------------------------------------------------------|
------------------------------------------------------------------|
--0-0-0-0-0-0-0-0-1-1-1-1-1-1-1-1-3-3-3-3-1-1-1-1-5-5-5-5-5-5-5-5-|


  T T T T T T T T T T T T T T T T T T T T T T T T T T T T T T T T  
------------------------------------------------------------------|
------------------------------------------------------------------|
------------------------------------------------------------------|
------------------------------------------------------------------|
----------7-7-7-7-7-7-7-7-----------------------------------------|
--0-0-0-0-----------------5-5-5-5-3-3-3-3-3-3-3-3-3-3-3-3-3-3-3-3-|


            PM                                          PM          
  Q    Q    E  E  Q       W                   Q    Q    E  E  Q     
-----------------------|-------------------|-----------------------|
-----------------------|-------------------|-----------------------|
-----------------------|-------------------|-----------------------|
--3----3-------5--L----|--L----------------|--3----3-------5--L----|
--3----3-------5--L----|--L----------------|--3----3-------5--L----|
--1----1----0--3--L----|--L----------------|--1----1----0--3--L----|


                                PM                              
  W                   Q    Q    E  E  Q       W                 
-------------------|-----------------------|-------------------|
-------------------|-----------------------|-------------------|
-------------------|-----------------------|-------------------|
--L----------------|--3----3-------5--L----|--L----------------|
--L----------------|--3----3-------5--L----|--L----------------|
--L----------------|--1----1----0--3--L----|--L----------------|


            PM                                \2                 
  Q    Q    E  E  Q       W                   W                  
-----------------------|-------------------|-------------------||
-----------------------|-------------------|-------------------||
-----------------------|-------------------|-------------------||
--3----3-------5--L----|--L----------------|--2----------------||
--3----3-------5--L----|--L----------------|--2----------------||
--1----1----0--3--L----|--L----------------|--0----------------||




Duration Legend
---------------
W - whole
H - half
Q - quarter
E - 8th
S - 16th
T - 32nd
X - 64th
. - note dotted
|-n-|  - n-tuplets


Tablature Legend
----------------
L - tied note
x - dead note
g - grace note
(n) - ghost note
> - accentuded note
NH - natural harmonic
AH - artificial harmonic
TH - tapped harmonic
SH - semi harmonic
PH - pitch harmonic
h - hammer on
p - pull off
b - bend
br - bendRelease
pb - preBend
pbr - preBendRelease
brb - bendReleaseBend
\n/ - tremolo bar dip
\n - tremolo bar dive
-/n - tremolo bar Release up
/n\ - tremolo bar inverted dip
/n - tremolo bar return
-\n - tremolo bar Release down
S - shift slide
s - legato slide
/ -  slide into from below or out of upwards
\ -  slide into from above or out of downwards
~ - vibrato
W - wide vibrato
tr - trill
TP - tremolo picking
T - tapping
S - slap
P - pop
< - fade in
^ - brush up
v - brush down

www.auroraborealis.org
Добавлено: 24.02.2012
Другие материалы по этой песне:

Страница создана 24.02.2012
http://primanota.ru/aurora-borealis/crucible-of-creation-chords.htm
Привет, Гость.
Предлагаем пройти революционный курс по гитаре.
Подарок от PrimaNota.Ru, забирай!