PrimaNota.ru - самый крупный в мире бесплатный архив песенных текстов, аккордов, табулатур и нот


Aura Noir - Destructor - текст песни, таба, видео

Регистрация Запомнить меня
Войти через:  Facebook Google Twitter Vk Yandex Mail.ru

Aura Noir - Destructor - текст песни, таба, видео

Печатать
Просмотров: 116
Уроки эстрадного вокала в Санкт-Петербурге
Авторы музыки: Carl-Michael Eide
Авторы текста: Carl-Michael Eide
As recorded by Aura Noir
                    (From the 1996 Album BLACK THRASH ATTACK)
                           Copyright Malicious Records



Music by Blasphemer , Apollyon , Aggressor
Transcribed by Jonathan Navarro
Date: July , 2008

Please e-mail me any correction
E-mail: reptilian29@hotmail.com


Gtr I (E A D G B E) - Blasphemer

Riff 1 x 4

       PM--------------------|       PM----|         PM----|
|--------------------------------------------------------------------|
|--------------------------------------------------------------------|
|--------------------------------------------------------------------|
|--------------------------------------------------------------------|
|-5h7---------------------------7h8-----------8h=10-----------3h5----|
|------0-0-0-0-0-0-0-0-0-0-0-0-------0-0-0-0---------0-0-0-0---------|


  PM----------------------------|   PM----|
|------------------------------------------------|
|------------------------------------------------|
|------------------------------------------------|
|------------------------------------------------|
|---------------------------------6---------6----|
|-0-0-0-0-0-0-0-0-0-0-0-0-0-0-0-0-4-0-0-0-0-4----|


Riff 2 x 4                          
                                     1st time   2nd,3rd and 4th time
    PM------------------------|    Variation 1      Variation 2
|--------------------------------|---------------|---------------|
|--------------------------------|---------------|---------------|
|--------------------------------|-4h5-4---------|-5-4-3---------|
|--------------------------------|-------5-4-3-2-|-------5-4-3-2-|
|-3-------------3-------------3--|---------------|---------------|
|-1-1-1-1-1-1-1-1-1-1-1-1-1-1-1--|---------------|---------------|


  PM--------------------------|
|-----------------------------------------------|
|-----------------------------------------------|
|--------------------------------4-3------------|
|------------------------------------5-3-2-5----|
|-2-------------2-------------2-----------------|
|-0-0-0-0-0-0-0-0-0-0-0-0-0-0-0-----------------|


Riff 3 x 4
                                    1st,3rd time
     PM------------------------|            PM|
|--------------------------------|----------------|
|--------------------------------|----------------|
|--------------------------------|----------------|
|--------------------------------|--------------5-|
|-1--1-1-1-1-1-1-1-1-1-1-1-1-1-1-|------2/3-------|
|--------------------------------|-3/4------0-0---|


     2nd time           4th time
|----------------|-------------------|
|----------------|-------------------|
|----------------|-------------------|
|-----------2--5-|-----------2--2----|
|------2-/3------|------2-/3---------|
|-3-/4-----------|-3-/4--------------|


Riff 4 x 2

    PM|   PM|   PM|       PM|   PM|   PM|
|-----------------------------------------------|
|-----------------------------------------------|
|-----------------------------------------------|
|--------------------2--------------------------|
|-3-----3-----3---------2-----2-----2------4----|
|-1-1-1-1-1-1-1-1-1-----0-0-0-0-0-0-0-0-0-------|


                               1st time            
    PM|   PM|   PM|        PM|   PM|   PM|         2nd time
|----------------------|----------------------|---------------|
|----------------------|----------------------|---------------|
|----------------------|----------------------|---------------|
|-5-----5-----5--------|--------------------2-|---------------|
|--------------------4-|-4-----4-----4--------|-4--4--4--4----|
|-3-3-3-3-3-3-3-3-3----|-2-2-2-2-2-2-2-2-2----|-2--2--2--2----|


Repeat Riff 1 x 4
Repeat Riff 2 x 4 without the Variation 1, playing Variation 2
Repeat Riff 3 x 4
Repeat Riff 4 x 2


Riff 5 x 4

     PM--------------|     PM    PM    PM    PM
|---------------------------------------------------|
|---------------------------------------------------|
|---------------------------------------------------|
|----------------------0h2---2h3---3h5---5h7---8\\\\|
|-2--2-2-2-2-2-2-2-2-2------------------------------|
|-0--0-0-0-0-0-0-0-0-0-----0-----0-----0-----0------|


  PM--------------|      PM    PM
|---------------------------------------|
|---------------------------------------|
|---------------------------------------|
|--------------------0h2---2h3----------|
|-2-2-2-2-2-2-2-2-2--------------8-3----|
|-0-0-0-0-0-0-0-0-0------0-----0-6-1----|


Riff 6 x 2

     PM--------------|      PM    PM    PM    PM
|-----------------------------------------------------|
|-----------------------------------------------------|
|-----------------------------------------------------|
|-2--2-2-2-2-2-2-2-2-2--2h3---3h5---5h7---7h8---11\\\\|
|-0--0-0-0-0-0-0-0-0-0------0-----0-----0-----0-------|
|-----------------------------------------------------|


  PM--------------|      PM    PM
|-------------------------------------------|
|-------------------------------------------|
|--------------------------------7\6-6-6----|
|-2-2-2-2-2-2-2-2-2--2h3---3h5---5\4-4-4----|
|-0-0-0-0-0-0-0-0-0------0-----0------------|
|-------------------------------------------|


Repeat Riff 5 x 2
Repeat Riff 6 x 2


Break
|--------------|
|--------------|
|--------------|
|---6---6------|
|-2-4-2-4-2----|
|-0---0---0----|


Riff 7 x 4

|---------------------------------------------------------------|
|---------------------------------------------------------------|
|---------------------------------------------------------------|
|---------------------------------------------------------------|
|---------------------------------------------------------------|
|-0-0-0-0-0-0-0-0-0-0-0-0-0-0-0-0--8p6-9p6-8p6-8p6-8p6-9p6-8p6--|


|---------------------------------------------------------|
|---------------------------------------------------------|
|---------------------------------------------------------|
|----------------------------------------------------3----|
|-------------------------------------------0--1--2-------|
|-0-0-0-0-0-0-0-0-0-0-0-0-0-0-0-0--0--1--2----------------|

Riff 8 x 2

|----------------------------------------------------|
|----------------------------------------------------|
|----------------------------------------------------|
|-----------------------------------8-7-5------------|
|-0-0-0-0-0-0-0-0-0-0-0-0-0-0-0-0---------8-7-5-6----|
|----------------------------------------------------|


|----------------------------------------------------------------|
|----------------------------------------------------------------|
|----------------------------------------------------------------|
|----------------------------------4h6p4h6p4h6p4h6p4h6p4h6p4h6p4-|
|-0-0-0-0-0-0-0-0-0-0-0-0-0-0--4h6-------------------------------|
|----------------------------------------------------------------|

Repeat Riff 7 x 2
Repeat Riff 8 x 2

Riff 9 x 4 

|-------------------------------------------------|
|-------------------------------------------------|
|-------------------------------------------------|
|-----------1-2-3--2-2-2-2-3-3-3-3-3-3-3-3-3-3----|
|-----1-2-3---------------------------------------|
|-1-4---------------------------------------------|


|----------------------------------------------------|
|----------------------------------------------------|
|----------------------------------------------------|
|-----------1-2-3------------------------------------|
|-----1-2-3------------------------------------------|
|-1-4-------------1-1-1-1-0-0-0-0-0-0-0-0-0-0-0-0----|

End with this
(Im not 100% secure of this chord but it sounds good)

|-0----|
|-4----|
|-5----|
|-6----|
|------|
|------|


Tablature Legend
----------------
 h   - hammer-on
 p   - pull-off
 /   - slide

http://www.auranoir.com/
Добавлено: 25.07.2012
Вам также может быть интересно:
Другие материалы по этой песне:

Страница создана 11.03.2012
http://primanota.ru/aura-noir/destructor-chords.htm
Привет, Гость.
Предлагаем пройти революционный курс по гитаре.
Подарок от PrimaNota.Ru, забирай!