PrimaNota.ru - самый крупный в мире бесплатный архив песенных текстов, аккордов, табулатур и нот


Aunty Disco Project - Sultanat - таба, видео

Регистрация Запомнить меня
Войти через:  Facebook Google Twitter Vk Yandex Mail.ru

Aunty Disco Project - Sultanat - таба, видео

Печатать
Просмотров: 102
Intro:

  B5             A5  G5     B5       C5
e-------------------------------------------------------------------------------------|
B-----7-7-5-4-5-7--9-7~----------7-7--------------------------------------------------|
G-4-4------------------------4-4-----9-8-9p85-8p5\4-4~--------------------------------|
D-------------------------------------------------------------------------------------|
A-------------------------------------------------------------------------------------|
E-------------------------------------------------------------------------------------|

  B5             A5  G5      E5   A5  B5
e-------------------------------------------------------------------------------------|
B-----7-7-5-4-5-7--9-7~----------7-7--------------------------------------------------|
G-4-4------------------------4-4-----9-8-9p85-----------------------------------------|
D-------------------------------------------------------------------------------------|
A-------------------------------------------------------------------------------------|
E-------------------------------------------------------------------------------------|

Verse 1:
B5
Kahin baadilon mein ghume
kahin aasman ko choome
kahin sultanat ko pa ke
G5            A5
Mein na jaanu re

B5
Kisi ko tarana suna ke
kisi ka parchm lehra ke
apni gulami sama ke
G5            A5  B5
mein na jaanu re  eee

Bridge:
D5           E5         B5
Iss dunya ko kese choru mein
A5        D5         B5
inn raahon pe kese jaoon mein
E5    A5     B5
wo hoo hoo ho hoo
E5    A5     B5
na na naa naa naa

Verse 2:
B5
Teri aarzo ko mita ke
teri justgu ko pa ke
kisi aatishi ki tarah
G5          A5
Mein dhundu waaste

B5
Unhen mein kese baton
iss noor ko kese churaun
meri sultanat ko dikha de
G5           A5    B5
Ab kahin roshniiii

Solo:

e--12b14-14-14-14-14-14p12p10-12p10-----------12-11--------------11-12-14-------------|
B-----------------------------------12~-12-13-------13-12--12-13----------------------|
G-------------------------------------------------------------------------------------|
D-------------------------------------------------------------------------------------|
A-------------------------------------------------------------------------------------|
E-------------------------------------------------------------------------------------|

e-12-14-15-14--14-15-14-12-14-12-11-12--11h12p11----11--------------------------------|
B------------------------------------------------13----13-12~-----12-14h15-14-12-12~--|
G--------------------------------------------------------------14---------------------|
D-------------------------------------------------------------------------------------|
A-------------------------------------------------------------------------------------|
E-------------------------------------------------------------------------------------|

e-------------------------------------------------------------------------------------|
B----12-14-14h15p14p12-14-12----------------------------------------------------------|
G-14-------------------------16-14----------------------------------------------------|
D----------------------------------16-15-14-12-14-12-14b-16-16-16-16-16-16-16---------|
A-------------------------------------------------------------------------------------|
E-------------------------------------------------------------------------------------|

e-------------------------------------------------------------------------------------|
B---------------------------------------------------------14-15-14h15p14----14--------|
G----------------------------------------14-16-14-16~--14----------------16----16-14--|
D--16p14p12-14-12---------12----12-14/16----------------------------------------------|
A-----------------14~--14----14-------------------------------------------------------|
E-------------------------------------------------------------------------------------|

e-------------------------------------------------------------------------------------|
B---------------------------------------17b19r17p15p12h15-12-15-17b19r17p15p12h15-----|
G----16~-----14-16-16--16--16--16--16\------------------------------------------------|
D-16------16-------16--16--16--16--16\------------------------------------------------|
A-------------------------------------------------------------------------------------|
E-------------------------------------------------------------------------------------|

e-------------------------------------------------------------------------------------|
B-12-15-17b19-19-19-19-r18-18-18-r17-17-15-15-14h15p14-14h15p14-14h15p14-14-12-12~----|
G-------------------------------------------------------------------------------------|
D-------------------------------------------------------------------------------------|
A-------------------------------------------------------------------------------------|
E-------------------------------------------------------------------------------------|

e----------------------------------------------------------------------------------------|
B----------------------------------0-0-17-0-15-0-14-0-15-0-14-0-12-0-14-0-10-0-----------|
G-16-14----------------------------------------------------------------------------------|
D-------16-15-15-14-12----12/14-14~------------------------------------------------------|
A----------------------14----------------------------------------------------------------|
E----------------------------------------------------------------------------------------|

e-------------------------------------------------------------------------------------|
B-12-0-14-0-15-0-14-0-12-0-14-0-15-0-14---17b19r17p15p12-15-12--------12~~------------|
G--------------------------------------------------------------14---------------------|
D------------------------------------------------------------------16-----------------|
A-------------------------------------------------------------------------------------|
E-------------------------------------------------------------------------------------|

e-------------------------------------------------------------------------------------|
B-------------------------------------------------------------------------------------|
G----------11-----------------------------------11------------------------------------|
D--9--9--9----9--9--9--10--10--10-------9--9--9----9--9--9--10--10--10--7~------------|
A--9--9--9----9--9--9--10--10--10-------9--9--9----9--9--9--10--10--10--7~------------|
E--7--7--7----7--7--7--8---8---8--------7--7--7----7--7--7--8---8---8---9~------------|


http://www.auntydiscoproject.com/
http://en.wikipedia.org/wiki/Aunty_Disco_Project
http://www.adpdiaries.blogspot.com/
Добавлено: 17.04.2012
Другие материалы по этой песне:

Страница создана 17.04.2012
http://primanota.ru/aunty-disco-project/sultanat-chords.htm
Привет, Гость.
Предлагаем пройти революционный курс по гитаре.
Подарок от PrimaNota.Ru, забирай!