PrimaNota.ru - самый крупный в мире бесплатный архив песенных текстов, аккордов, табулатур и нот


Aunts - Addicted 2 U - таба, видео

Регистрация Запомнить меня
Войти через:  Facebook Google Twitter Vk Yandex Mail.ru

Aunts - Addicted 2 U - таба, видео

Печатать
Просмотров: 84
-------------------------------------------------------------------------------
                             Addicted 2 U - Aunts
-------------------------------------------------------------------------------
Tabbed by: Alex

http://aunts.bandcamp.com/

Tuning: DADGBe

Guitar One

Intro/Verse
E|-----------------------------------------------------------------------------------------------|
B|-----------------------------------------------------------------------------------------------|
G|-----------------------------------------------------------------------------------------------|
D|--------4--------4--------4--------4--7--5--4-----------7--------7-----7--------7-----9-----7--|
A|-----5--------5--------5--------5--------------5-----5--------4--------------9-----5-----5-----|
D|--0--------0--------0--------0--------------------4--------4--------4-----5--------------------|

Verse: cont.
E|---------------------------------------------------------------------------------------|
B|---------------------------------------------------------------------------------------|
G|--------------------------2--------2---------7-----------6-----------7--6--4-----------|
D|--------4--------4-----4--------4---------9-----9-----7-----7-----4-----------7--5--4--|
A|-----5--------5-----2--------2--------10-----------9-----------5-----------------------|
D|--0--------0---------------------------------------------------------------------------|

Chorus
E|------------------------------------------------------------------------------------------|
B|-----------7--------------------5---------------------------------------------------------|
G|--------7-----7-----7--------6--------11-----9-----------9--------9-----------7-----------|
D|-----4-----------4--------7---------------------------7-----7--------------5-----5-----5--|
A|--5--------------------0-----------9------7--------7-----------7--------5-----------5-----|
D|------------------------------------------------7--------------------5--------------------|

Verse II: I miss the...
E|-------------|
B|-------------|
G|--11--9---7--|
D|--12--11--9--|
A|-------------|
D|-------------|

Verse II: Sound of you...
E|------------------------------------------------------------------------------------|
B|-------------------------------------5----------------------------------------------|
G|-------------2--0--------------7--------7--------------4-----0--------------9/11\9--|
D|----------4--------4--------7-----7--------7--------7-----7--------------7----------|
A|-----0h5--------------5--5-----------------------5--------------5-----7-------------|
D|--0-------------------------------------------5--------------------7----------------|

Guitar Two

Verse I: Intro; Verse I: Sound of you...
E|---------------------------------------------------------------------------------------------|
B|---------------------------------------------------------------------------------------------|
G|----------------------------------------------------------------------------7----------------|
D|----------4p0----------------7--4----------4-------------4p0-------------------4/9--7--------|
A|------5h7-----0-2-4-5-----5-----------5h7-----------5h7------0-2-4-5------5------------9--7--|
D|--5h7-------------------5-----------4----------5h7--------------------5----------------------|

Verse: cont.
E|----------12----------12--------10--------10--------5-----------5-------------14------12-----10--|
B|------15----------15---------7---------7---------7-----7-----5-----5------10------10------10-----|
G|--14----------14----------7---------7---------7-----------7-----------11-------------------------|
D|-------------------------------------------------------------------------------------------------|
A|-------------------------------------------------------------------------------------------------|
D|-------------------------------------------------------------------------------------------------|

Chorus
E|------------------------5/10-------------------------------------------5/10----------------------|
B|------------------2--3--------7-----7h8p7------------------------2--3--------7-----7h8p7---------|
G|------------2--4-----------------7---------7---------------2--4-----------------7---------7h9p7--|
D|-----0h2h4------------------------------------7-----0h2h4----------------------------------------|
A|--5----------------------------------------------5-----------------------------------------------|
D|-------------------------------------------------------------------------------------------------|

Verse II: Intro
E|--------------10-------------------------------------5-----------------0-----|
B|----------10------10------------7h10--8--7--------7-----7--------3--------3--|
G|------11--------------11-----7-----------------6--------------2-----2--------|
D|--12----------------------9-----------------7--------------5-----------------|
A|-----------------------------------------------------------------------------|
D|-----------------------------------------------------------------------------|

Verse II: I miss the...
E|--14--12--10--|
B|--15--14--12--|
G|--------------|
D|--------------|
A|--------------|
D|--------------|

Verse II: Sound of you...
E|------10------------------10--------------10----------------------10--12/14--12--|
B|----------14--12--10----------14--12----------14--12--10------10-----------------|
G|--11------------------11--------------11------------------11---------------------|
D|---------------------------------------------------------------------------------|
A|---------------------------------------------------------------------------------|
D|---------------------------------------------------------------------------------|

Outro
E|----------------------------|
B|--12--10--8--7-----7--8-----|
G|----------------9--------7--|
D|----------------------------|
A|----------------------------|
D|----------------------------|

************************************

| /   slide up
| \   slide down
| h   hammer-on
| p   pull-off
| ~   vibrato
| +   harmonic
| x   Mute note
| b   Bend
| pb  Pre-bend
| br  Bend release
| pbr Pre-bend release
| brb Bend release bend

************************************
Добавлено: 19.12.2015
Другие материалы по этой песне:
  • Аккорды и текст

Страница создана 19.12.2015
http://primanota.ru/aunts/addicted-2-u-chords.htm
Привет, Гость.
Предлагаем пройти революционный курс по гитаре.
Подарок от PrimaNota.Ru, забирай!