PrimaNota.ru - самый крупный в мире бесплатный архив песенных текстов, аккордов, табулатур и нот


Auletta - Heimatmelodie - таба, видео

Регистрация Запомнить меня
Войти через:  Facebook Google Twitter Vk Yandex Mail.ru

Auletta - Heimatmelodie - таба, видео

Печатать
Просмотров: 213
Intro von Aulettas Heimatmeldie + Tonfolge im Refrain...

Intro:

e|--313~--31331----313~1-1-1-1-3-3-3-3--313~--31331----313~1-1-1-1-3-3-3-3|
B|-1-----1-----3~-1--------------------1-----1-----3~-1-------------------|
G|------------------------------------------------------------------------|
D|------------------------------------------------------------------------|
A|------------------------------------------------------------------------|
E|------------------------------------------------------------------------|

[1. Strophe]

Refrain:

e|-----------------------------------1-------1-----------------------------|
B|-443-11-1114-44431-414-4414-1414-14-4-44434-4-444431-11133344-14443-14443|
G|-------------------------------------------------------------------------|
D|-------------------------------------------------------------------------|
A|-------------------------------------------------------------------------|
E|-------------------------------------------------------------------------|

e|--------|
B|-144431-|
G|--------|
D|--------|
A|--------|
E|--------|

nach Refrain kommt ein abgewandeltes Intro:

e|--313~--31331----313~1-1-1-1-3-3-3-3-|
B|-1-----1-----3~-1--------------------|
G|-------------------------------------|
D|-------------------------------------|
A|-------------------------------------|
E|-------------------------------------|

[2. Strophe]
Добавлено: 13.04.2012
Другие материалы по этой песне:
  • Аккорды и текст

Страница создана 13.04.2012
http://primanota.ru/auletta/heimatmelodie-chords.htm
Привет, Гость.
Предлагаем пройти революционный курс по гитаре.
Подарок от PrimaNota.Ru, забирай!