PrimaNota.ru - самый крупный в мире бесплатный архив песенных текстов, аккордов, табулатур и нот


Augustana - Hotel Roosevelt - текст песни, таба, видео

Регистрация Запомнить меня
Войти через:  Facebook Google Twitter Vk Yandex Mail.ru

Augustana - Hotel Roosevelt - текст песни, таба, видео

Печатать
Просмотров: 141
Уроки эстрадного вокала в Санкт-Петербурге
-------------------------------------------------------------------------------
                             Hotel Roosevelt - Augustana
-------------------------------------------------------------------------------
Tabbed by: Guitarchitect
Email: bmcverry@gmail.com

Tuning Guitar 1: E A D G B e (standard)[electric]
Tuning Guitar 2: E A D G B e (standard)[acoustic]


Guitar 1
Intro and 1st verse
e|-----------------------------|
B|-----------------------------|
G|------4--------4-------------|  X 6
D|----5--------5---5----0---0--|
A|--3--------3--------3---0----|
E|-----------------------------|




Guitar 2
Bridge 
e|--3--3--3--3---3--3--3--3---3--3--3--|
B|--3--3--3--3---3--3--3--3---3--3--3--|
G|--0--0--0--0---2--2--2--2---0--0--0--|  X 2
D|--0--0--0--0---2--2--2--2---2--2--2--|
A|--2--2--2--2---0--0--0--0---3--3--3--|
E|--3--3--3--3-------------------------|

Guitar 1
Bridge
e|-----------------------------|
B|----8-7-8----8-10-8----8-12--|
G|--7--------7---------7-------|  X 2
D|-----------------------------|
A|-----------------------------|
E|-----------------------------|




Guitar 1
Verse
e|-----------------------------|
B|-----------------------------|
G|------4--------4-------------|  X 4
D|----5--------5---5----0---0--|
A|--3--------3--------3---0----|
E|-----------------------------|




Guitar 2
Bridge 
e|--3--3--3--3---3--3--3--3---3--3--3--|
B|--3--3--3--3---3--3--3--3---3--3--3--|
G|--0--0--0--0---2--2--2--2---0--0--0--|  X 4
D|--0--0--0--0---2--2--2--2---2--2--2--|
A|--2--2--2--2---0--0--0--0---3--3--3--|
E|--3--3--3--3-------------------------|

Guitar 1
Bridge
e|-----------------------------|
B|----8-7-8----8-10-8----8-12--|
G|--7--------7---------7-------|  X 4
D|-----------------------------|
A|-----------------------------|
E|-----------------------------|




Guitar 1 + 2
Chorus
e|--3-3-x--3-3-x--3-3---3-3--3-3-3-3--|
B|--3-3-x--3-3-x--3-3---3-3--3-3-3-3--|
G|--0-0-x--0-0-x--0-0---0-0--2-2-2-2--|  X 4
D|--2-2-x--2-2-x--2-2---0-0--2-2-2-2--| 
A|--3-3-x--3-3-x--3-3---2-2-----------|
E|------x------x--------3-3-----------|

Guitar 2
Solo 
e|--------------------------------------|
B|--------------------------------------|
G|--4-4-4-4-4-4-4-4-4-\-2-2-4-4--0-0----| X 2
D|--------------------------------------|
A|--------------------------------------|
E|--------------------------------------|





Guitar 1
Verse
e|-----------------------------|
B|-----------------------------|
G|------4--------4-------------|  X 4
D|----5--------5---5----0---0--|
A|--3--------3--------3---0----|
E|-----------------------------|





Guitar 2
Bridge 
e|--3--3--3--3---3--3--3--3---3--3--3--|
B|--3--3--3--3---3--3--3--3---3--3--3--|
G|--0--0--0--0---2--2--2--2---0--0--0--|  X 4
D|--0--0--0--0---2--2--2--2---2--2--2--|
A|--2--2--2--2---0--0--0--0---3--3--3--|
E|--3--3--3--3-------------------------|

Guitar 1
Bridge
e|-----------------------------|
B|----8-7-8----8-10-8----8-12--|
G|--7--------7---------7-------|  X 4
D|-----------------------------|
A|-----------------------------|
E|-----------------------------|




Guitar 1 + 2
Chorus
e|--3-3-x--3-3-x--3-3---3-3--3-3-3-3--|
B|--3-3-x--3-3-x--3-3---3-3--3-3-3-3--|
G|--0-0-x--0-0-x--0-0---0-0--2-2-2-2--|  X 4
D|--2-2-x--2-2-x--2-2---0-0--2-2-2-2--| 
A|--3-3-x--3-3-x--3-3---2-2-----------|
E|------x------x--------3-3-----------|


Guitar 2
Solo 
e|--------------------------------------|
B|--------------------------------------|
G|--4-4-4-4-4-4-4-4-4-\-2-2-4-4--0-0----|
D|--------------------------------------| X 2
A|--------------------------------------|
E|--------------------------------------|


I didnt end the song because its the exact same as the stuff before. SOrry abou
the solo, it might not be 100% correct because I have to do an english essay and
I forgot that its getting late. Good luck.



| /  slide up
| \  slide down
| h  hammer-on
| p  pull-off
| ~  vibrato
| +  harmonic
| x  Mute note
===============================================================================
Добавлено: 18.04.2012
Другие материалы по этой песне:
  • Аккорды и текст

Страница создана 18.04.2012
http://primanota.ru/augustana/hotel-roosevelt-chords.htm
Привет, Гость.
Предлагаем пройти революционный курс по гитаре.
Подарок от PrimaNota.Ru, забирай!