PrimaNota.ru - самый крупный в мире бесплатный архив песенных текстов, аккордов, табулатур и нот


Augustana - Coffee And Cigarettes - текст песни, таба, видео

Регистрация Запомнить меня
Войти через:  Facebook Google Twitter Vk Yandex Mail.ru

Augustana - Coffee And Cigarettes - текст песни, таба, видео

Печатать
Просмотров: 167
INTRO

e|---------3--------|
B|-----3-----3---3--|
G|---0---0-----0----|X4
D|------------------|
A|------------------|
E|------------------|


VERSE
0:07
e|---------3--------|
B|-----3-----3---3--|
G|---0---0-----0----|X4
D|------------------|
A|------------------|
E|------------------|
Wake up, take you pills dear...

0:14
e|---------0--------|
B|-----1-----1---1--|
G|---0---0-----0----|X2
D|------------------|
A|------------------|
E|------------------|
I know this time of year...

0:18
e|---------3--------|
B|-----3-----3---3--|
G|---0---0-----0----|X4
D|------------------|
A|------------------|
E|------------------|
You came with a sickness...

e|---------0--------|
B|-----1-----1---1--|
G|---0---0-----0----|X4
D|------------------|
A|------------------|
E|------------------|
Shot down back in christmas...

e|---------0--------|
B|-----1-----1---1--|
G|---0---0-----0----|X4
D|------------------|
A|------------------|
E|------------------|
And I'm Sure You've lost that weight again...

e|---------3--------|
B|-----1-----1---1--|
G|---0---0-----0----|X10
D|------------------|
A|------------------|
E|------------------|
I'm sure the pills keep pouring in...

e|---0-3---0-3---0-3--|
B|-1-----1-----1------|
G|--------------------|
D|--------------------|
A|--------------------|
E|--------------------|

CHORUS
e|--0-0---3-3-3-3-|
B|--1-1---1-1-3-3-|
G|--0-0---0-0-0-0-| Over and over Till 2:40
D|--2-2---2-2-0-0-|
A|--3-3---3-3-2-2-|
E|--x-x---x-x-3-3-|

e|---0-3----------|
B|-1-----1---1----|
G|---------0------|
D|----------------|
A|----------------|
E|----------------|
With you....

VERSE

e|---------3--------|
B|-----3-----3---3--|
G|---0---0-----0----|X4
D|------------------|
A|------------------|
E|------------------|

e|---------3--------|
B|-----3-----3---3--|
G|---0---0-----0----|X4
D|------------------|
A|------------------|
E|------------------|
One night, when you woke up...

e|---------0--------|
B|-----1-----1---1--|
G|---0---0-----0----|X2
D|------------------|
A|------------------|
E|------------------|
Oh, this ain't pretty dear...

e|---------3--------|
B|-----3-----3---3--|
G|---0---0-----0----|X4
D|------------------|
A|------------------|
E|------------------|
With clocks...

e|---------0--------|
B|-----1-----1---1--|
G|---0---0-----0----|X2
D|------------------|
A|------------------|
E|------------------|
Finally be free...

e|---------0--------|
B|-----1-----1---1--|
G|---0---0-----0----|X4
D|------------------|
A|------------------|
E|------------------|
And I'm Sure You've lost that weight again...

e|---------0--------|
B|-----1-----1---1--|
G|---0---0-----0----|X4
D|------------------|
A|------------------|
E|------------------|
I'm sure the pills keep pouring in...

e|---------0--------|
B|-----1-----1---1--|
G|---0---0-----0----|X2
D|------------------|
A|------------------|
E|------------------|

e|---0-3----------|
B|-1-----1---1----|
G|---------0------|
D|----------------|
A|----------------|
E|----------------|
We'll scream at night...

CHORUS
e|--0-0---3-3-3-3-|
B|--1-1---1-1-3-3-|
G|--0-0---0-0-0-0-| Over and over Till 2:40
D|--2-2---2-2-0-0-|
A|--3-3---3-3-2-2-|
E|--x-x---x-x-3-3-|

e|---0-3----------|
B|-1-----1---1----|
G|---------0------|
D|----------------|
A|----------------|
E|----------------|
With you....


e|---0-3----------|
B|-1-----1---1----|
G|---------0------|
D|----------------|
A|----------------|
E|----------------|
We'll scream at night to make it go away...

e|--0-0---3-3-3-3-|
B|--1-1---1-1-3-3-|
G|--0-0---0-0-0-0-| Over and over Till 3:32
D|--2-2---2-2-0-0-|
A|--3-3---3-3-2-2-|
E|--x-x---x-x-3-3-|

e|---0-3----------|
B|-1-----1---1----|
G|---------0------|
D|----------------|
A|----------------|
E|----------------|
With you....

e|---0-3----------|
B|-1-----1---1----|
G|---------0------|Repeat until 3:51
D|----------------|
A|----------------|
E|----------------|

Ending:
e|---0-3--------3--|
B|-1-----1------3--|
G|---------0----0--|
D|--------------0--|
A|--------------2--|
E|--------------3--|


Добавлено: 20.07.2012
Другие материалы по этой песне:
  • Аккорды и текст

Страница создана 25.06.2012
http://primanota.ru/augustana/coffee-and-cigarettes-chords.htm
Привет, Гость.
Предлагаем пройти революционный курс по гитаре.
Подарок от PrimaNota.Ru, забирай!