PrimaNota.ru - самый крупный в мире бесплатный архив песенных текстов, аккордов, табулатур и нот


Augustana - Californias Burning - текст песни, таба, видео

Регистрация Запомнить меня
Войти через:  Facebook Google Twitter Vk Yandex Mail.ru

Augustana - Californias Burning - текст песни, таба, видео

Печатать
Просмотров: 155
Title – California's Burning
Artist- Augustana
Album – All the Stars and Boulevards

Tabbed by: Larry A

Tuning: Standard
Guitar 1 – Slight Distortion, Clean
Guitar 2 – Distortion, Slight Distortion

 _________________
|Intro (0:00-0:24)|
|_________________|

Guitar 1
e| |---------------------------------|---------------------------------|
B| |---------------------------------|---------------------------------|
G| |17--17--17--17-\16--16-\14--14-\-|12--12--12--12-/14--14--14--14-/-|
D| |-x---x---x---x---x---x---x---x---|-x---x---x---x---x---x---x---x---|
A| |15--15--15--15-\14--14-\12--12-\-|10--10--10--10-/12--12--12--12-/-|
E| |---------------------------------|---------------------------------|
                                                                       |
Guitar 2                                                               |
e| |(0---0---0---0---0---0---0---0)--|(0---0---0---0---0---0---0---0)--|
B| |(0---0---0---0---0---0---0---0)--|(0---0---0---0---0---0---0---0)--|
G| |(0---0---0---0---0---0---0---0)--|(0---0---0---0---0---0---0---0)--|
D| |-5---5---5---5---5---5---5---5-\-|-4---4---4---4---2---2---2---2---|
A| |-5---5---5---5---5---5---5---5---|-5---5---5---5---2---2---2---2---|
E| |-3---3---3---3---3---3---3---3-\-|-2---2---2---2---0---0---0---0---|

Guitar 1
e| |---------------------------------|---------------------------------|
B| |---------------------------------|---------------------------------|
G| |17--17--17--17-\16--16-\14--14-\-|12--12--12--12-/14--14--14--14-/-|
D| |-x---x---x---x---x---x---x---x---|-x---x---x---x---x---x---x---x---|
A| |15--15--15--15-\14--14-\12--12-\-|10--10--10--10-/12--12--12--12-/-|
E| |---------------------------------|---------------------------------|
                                                                       |
Guitar 2                                                               |
e| |(0---0---0---0---0---0---0---0)--|(0---0---0---0---0---0---0---0)--|
B| |(0---0---0---0---0---0---0---0)--|(0---0---0---0---0---0---0---0)--|
G| |(0---0---0---0---0---0---0---0)--|(0---0---0---0---0---0---0---0)--|
D| |-2---2---2---2---2---2---2---2---|-2---2---2---2---3---3---3---3-/-|
A| |-2---2---2---2---2---2---2---2---|-2---2---2---2---3---3---3---3-/-|
E| |-0---0---0---0---0---0---0---0---|-0---0---0---0---1---1---1---1-/-|

Guitar 1
e| |---------------------------------|---------------------------------|
B| |---------------------------------|---------------------------------|
G| |17--17--17--17-\16--16-\14--14-\-|12--12--12--12-/14--14--14--14---|
D| |-x---x---x---x---x---x---x---x---|-x---x---x---x---x---x---x---x---|
A| |15--15--15--15-\14--14-\12--12-\-|10--10--10--10-/12--12--12--12---|
E| |---------------------------------|---------------------------------|
                                                                       |
Guitar 2                                                               |
e| |(0---0---0---0---0---0---0---0)--|(0---0---0---0---0---0---0)--0---|
B| |(0---0---0---0---0---0---0---0)--|(0---0---0---0---0---0---0)--0---|
G| |(0---0---0---0---0---0---0---0)--|(0---0---0---0---0---0---0)--0---|
D| |-5---5---5---5---5---5---5---5-\-|-4---4---4---4---3---3---3---3---|
A| |-5---5---5---5---5---5---5---5---|-5---5---5---5---3---3---3---3---|
E| |-3---3---3---3---3---3---3---3-\-|-2---2---2---2---1---1---1---1---|

Guitar 1
e| |---------------------------------|-0~~~----------------------------|
B| |---------------------------------|-0~~~----------------------------|
G| |17--17--17--17-\16--16-\14--14-\-|12~~~----------------------------|
D| |-x---x---x---x---x---x---x---x---|-x-------------------------------|
A| |15--15--15--15-\14--14-\12--12-\-|10~~~----------------------------|
E| |---------------------------------|---------------------------------|
                                                                       |
Guitar 2                                                               |
e| |(0---0---0---0---0---0---0---0)--|-0~~~----------------------------|
B| |(0---0---0---0---0---0---0---0)--|-0~~~----------------------------|
G| |(0---0---0---0---0---0---0---0)--|-0~~~----------------------------|
D| |-2---2---2---2---2---2---2---2---|-3~~~----------------------------|
A| |-2---2---2---2---2---2---2---2---|-3~~~----------------------------|
E| |-0---0---0---0---0---0---0---0---|-1~~~----------------------------|

 _________________
|Verse (0:24-0:36)|
|_________________|

Guitar 1 (Clean)
e| |-----------------------------0---|-----------------3~~~------------|
B| |-----0-------0-------0---------0-|-----0-------0---3~~~------------|
G| |-------0-------0-------0---0-----|-------0-------0-0~~~------------|
D| |---2-------5-------5-------------|---2-------5-----0~~~------------|
A| |-3-------6-------7-------8-------|-3-------6-------2~~~------------|
E| |---------------------------------|-----------------3~~~------------|
         California's burning, burning,    burning to the ground...


 ______________________
|Pre-Chorus (0:37-0:45)|
|______________________|

Guitar 1 (Clean)
e| |-----------------------------0---|---------------------------------|
B| |-----0-------0-------0---------0-|-----0-------0-------------------|
G| |-------0-------0-------0---0-----|-------0-------0-----------------|
D| |---2-------5-------5-------------|---2-------5---------------------|
A| |-3-------6-------7-------8-------|-3-------6-----------------------|
E| |---------------------------------|---------------------------------|
         And my head is turning, turning,  turning round and           |
                                                                       |
Guitar 2 (Slight Distortion)                                           |
e| |-------3-------3-------5-------3-|-------3-------3-----------------|
B| |-----0-------0-------0-------0---|-----0-------0-------------------|
G| |---0-------0-------0-------0-----|---0-------0---------------------|
D| |---------------------------------|---------------------------------|
A| |---------------------------------|---------------------------------|
E| |---------------------------------|---------------------------------|

 __________________
|Chorus (0:46-0:58)|
|__________________|

Guitar 1
e| |---------------------------------|---------------------------------|
B| |---------------------------------|---------------------------------|
G| |17--17--17--17-\16--16-\14--14-\-|12--12--12--12-/14--14--14--14---|
D| |-x---x---x---x---x---x---x---x---|-x---x---x---x---x---x---x---x---|
A| |15--15--15--15-\14--14-\12--12-\-|10--10--10--10-/12--12--12--12---|
E| |---------------------------------|---------------------------------|
    round...                                                           |
                                                                       |
Guitar 2                                                               |
e| |(0---0---0---0---0---0---0---0)--|(0---0---0---0---0---0---0)--0---|
B| |(0---0---0---0---0---0---0---0)--|(0---0---0---0---0---0---0)--0---|
G| |(0---0---0---0---0---0---0---0)--|(0---0---0---0---0---0---0)--0---|
D| |-5---5---5---5---5---5---5---5-\-|-4---4---4---4---2---2---2---2---|
A| |-5---5---5---5---5---5---5---5---|-5---5---5---5---2---2---2---2---|
E| |-3---3---3---3---3---3---3---3-\-|-2---2---2---2---0---0---0---0---|

Guitar 1
e| |---------------------------------|-0~~~----------------------------|
B| |---------------------------------|-0~~~----------------------------|
G| |17--17--17--17-\16--16-\14--14-\-|12~~~----------------------------|
D| |-x---x---x---x---x---x---x---x---|-x-------------------------------|
A| |15--15--15--15-\14--14-\12--12-\-|10~~~----------------------------|
E| |---------------------------------|---------------------------------|
    round...                                                           |
                                                                       |
Guitar 2                                                               |
e| |(0---0---0---0---0---0---0---0)--|-0~------------------------------|
B| |(0---0---0---0---0---0---0---0)--|-0~------------------------------|
G| |(0---0---0---0---0---0---0---0)--|-0~------------------------------|
D| |-2---2---2---2---2---2---2---2---|-2~------------------------------|
A| |-2---2---2---2---2---2---2---2---|-2~------------------------------|
E| |-0---0---0---0---0---0---0---0---|-0~------------------------------|

 _________________
|Verse (0:58-1:10)|
|_________________|

Guitar 1 (Clean)
e| |-----------------------------0---|-----------------3~--------------|
B| |-----0-------0-------0---------0-|-----0-------0---3~--------------|
G| |-------0-------0-------0---0-----|-------0-------0-0~--------------|
D| |---2-------5-------5-------------|---2-------5-----0~--------------|
A| |-3-------6-------7-------8-------|-3-------6-------2~--------------|
E| |---------------------------------|-----------------3~--------------|
         Alie's stomach churning, churning,        like a storm today...

 ______________________
|Pre-Chorus (1:11-1:19)|
|______________________|

Guitar 1 (Clean)
e| |-----------------------------0---|---------------------------------|
B| |-----0-------0-------0---------0-|-----0-------0-------------------|
G| |-------0-------0-------0---0-----|-------0-------0-----------------|
D| |---2-------5-------5-------------|---2-------5---------------------|
A| |-3-------6-------7-------8-------|-3-------6-----------------------|
E| |---------------------------------|---------------------------------|
         And your mother's crying, crying  closing up the              |
                                                                       |
Guitar 2 (Slight Distortion)                                           |
e| |-------3-------3-------5-------3-|-------3-------3-----------------|
B| |-----0-------0-------0-------0---|-----0-------0-------------------|
G| |---0-------0-------0-------0-----|---0-------0---------------------|
D| |---------------------------------|---------------------------------|
A| |---------------------------------|---------------------------------|
E| |---------------------------------|---------------------------------|

 __________________
|Chorus (1:20-1:44)|
|__________________|

Guitar 1
e| |---------------------------------|---------------------------------|
B| |---------------------------------|---------------------------------|
G| |17--17--17--17-\16--16-\14--14-\-|12--12--12--12-/14--14--14--14-/-|
D| |-x---x---x---x---x---x---x---x---|-x---x---x---x---x---x---x---x---|
A| |15--15--15--15-\14--14-\12--12-\-|10--10--10--10-/12--12--12--12-/-|
E| |---------------------------------|---------------------------------|
    safe...                                                            |
                                                                       |
Guitar 2                                                               |
e| |(0---0---0---0---0---0---0---0)--|(0---0---0---0---0---0---0---0)--|
B| |(0---0---0---0---0---0---0---0)--|(0---0---0---0---0---0---0---0)--|
G| |(0---0---0---0---0---0---0---0)--|(0---0---0---0---0---0---0---0)--|
D| |-5---5---5---5---5---5---5---5-\-|-4---4---4---4---2---2---2---2---|
A| |-5---5---5---5---5---5---5---5---|-5---5---5---5---2---2---2---2---|
E| |-3---3---3---3---3---3---3---3-\-|-2---2---2---2---0---0---0---0---|

Guitar 1
e| |---------------------------------|---------------------------------|
B| |---------------------------------|---------------------------------|
G| |17--17--17--17-\16--16-\14--14-\-|12--12--12--12-/14--14--14--14-/-|
D| |-x---x---x---x---x---x---x---x---|-x---x---x---x---x---x---x---x---|
A| |15--15--15--15-\14--14-\12--12-\-|10--10--10--10-/12--12--12--12-/-|
E| |---------------------------------|---------------------------------|
    safe...                                             Closing up the |
                                                                       |
Guitar 2                                                               |
e| |(0---0---0---0---0---0---0---0)--|(0---0---0---0---0---0---0---0)--|
B| |(0---0---0---0---0---0---0---0)--|(0---0---0---0---0---0---0---0)--|
G| |(0---0---0---0---0---0---0---0)--|(0---0---0---0---0---0---0---0)--|
D| |-2---2---2---2---2---2---2---2---|-2---2---2---2---3---3---3---3-/-|
A| |-2---2---2---2---2---2---2---2---|-2---2---2---2---3---3---3---3-/-|
E| |-0---0---0---0---0---0---0---0---|-0---0---0---0---1---1---1---1-/-|

Guitar 1
e| |---------------------------------|---------------------------------|
B| |---------------------------------|---------------------------------|
G| |17--17--17--17-\16--16-\14--14-\-|12--12--12--12-/14--14--14--14-/-|
D| |-x---x---x---x---x---x---x---x---|-x---x---x---x---x---x---x---x---|
A| |15--15--15--15-\14--14-\12--12-\-|10--10--10--10-/12--12--12--12-/-|
E| |---------------------------------|---------------------------------|
    safe...                                                            |
                                                                       |
Guitar 2                                                               |
e| |(0---0---0---0---0---0---0---0)--|(0---0---0---0---0---0---0---0)--|
B| |(0---0---0---0---0---0---0---0)--|(0---0---0---0---0---0---0---0)--|
G| |(0---0---0---0---0---0---0---0)--|(0---0---0---0---0---0---0---0)--|
D| |-5---5---5---5---5---5---5---5-\-|-4---4---4---4---2---2---2---2---|
A| |-5---5---5---5---5---5---5---5---|-5---5---5---5---2---2---2---2---|
E| |-3---3---3---3---3---3---3---3-\-|-2---2---2---2---0---0---0---0---|

Guitar 1
e| |---------------------------------|---------------------------------|
B| |---------------------------------|---------------------------------|
G| |17--17--17--17-\16--16-\14--14-\-|19--19--19--19--19--19--19--19---|
D| |-x---x---x---x---x---x---x---x---|-x---x---x---x---x---x---x---x---|
A| |15--15--15--15-\14--14-\12--12-\-|17--17--17--17--17--17--17--17---|
E| |---------------------------------|---------------------------------|
    safe...                                                  And I'm   |
                                                                       |
Guitar 2                                                               |
e| |(0---0---0---0---0---0---0---0)--|(0---0---0---0---0---0---0---0)--|
B| |(0---0---0---0---0---0---0---0)--|(0---0---0---0---0---0---0---0)--|
G| |(0---0---0---0---0---0---0---0)--|(0---0---0---0---0---0---0---0)--|
D| |-2---2---2---2---2---2---2---2---|-2---2---2---2---3---3---3---3---|
A| |-2---2---2---2---2---2---2---2---|-2---2---2---2---3---3---3---3---|
E| |-0---0---0---0---0---0---0---0---|-0---0---0---0---1---1---1---1---|

 __________________
|Bridge (1:44-2:07)|
|__________________|

Guitar 1
e| |---------------------------------|---------------------------------|
B| |-----------------9-------9---/---|15--13--12--13--12--10--12--10---|
G| |----12------12------12-----------|---------------------------------|
D| |12------12-----------------------|---------------------------------|
A| |---------------------------------|---------------------------------|
E| |---------------------------------|---------------------------------|
    here...                           wondering where the sun has      |
                                                                       |
Guitar 2                                                               |
e| |---------------------------------|---------------------------------|
B| |---------------------------------|---------------------------------|
G| |---------------------------------|---------------------------------|
D| |-7-7-7-7-7-7-7-7-7-7-7-7-7-7-7-7-|-9-9-9-9-9-9-9-9-9-9-9-9-9-9-9-9-|
A| |-7-7-7-7-7-7-7-7-7-7-7-7-7-7-7-7-|-9-9-9-9-9-9-9-9-9-9-9-9-9-9-9-9-|
E| |-5-5-5-5-5-5-5-5-5-5-5-5-5-5-5-5-|-7-7-7-7-7-7-7-7-7-7-7-7-7-7-7-7-|

Guitar 1
e| |---------------------------------|---------------------------------|
B| |-----------(15)--9-------9---/---|15--13--12--13--12--10--12--10---|
G| |----12--------------12-----------|---------------------------------|
D| |14------14-----------------------|---------------------------------|
A| |---------------------------------|---------------------------------|
E| |---------------------------------|---------------------------------|
    gone...                           driving through the Midwest      |
                                                                       |
Guitar 2                                                               |
e| |---------------------------------|---------------------------------|
B| |---------------------------------|---------------------------------|
G| |---------------------------------|---------------------------------|
D| |10101010101010101010101010101010-|-9-9-9-9-9-9-9-9-9-9-9-9-9-9-9-9-|
A| |10101010101010101010101010101010-|-9-9-9-9-9-9-9-9-9-9-9-9-9-9-9-9-|
E| |-8-8-8-8-8-8-8-8-8-8-8-8-8-8-8-8-|-7-7-7-7-7-7-7-7-7-7-7-7-7-7-7-7-|

Guitar 1
e| |---------------------------------|---------------------------------|
B| |-----------------9-------9---/---|15--13--12--13--12--10--12--10---|
G| |----12------12------12-----------|---------------------------------|
D| |12------12-----------------------|---------------------------------|
A| |---------------------------------|---------------------------------|
E| |---------------------------------|---------------------------------|
    storm...                          asking why there's no one        |
                                                                       |
Guitar 2                                                               |
e| |---------------------------------|---------------------------------|
B| |---------------------------------|---------------------------------|
G| |---------------------------------|---------------------------------|
D| |-7-7-7-7-7-7-7-7-7-7-7-7-7-7-7-7-|-9-9-9-9-9-9-9-9-9-9-9-9-9-9-9-9-|
A| |-7-7-7-7-7-7-7-7-7-7-7-7-7-7-7-7-|-9-9-9-9-9-9-9-9-9-9-9-9-9-9-9-9-|
E| |-5-5-5-5-5-5-5-5-5-5-5-5-5-5-5-5-|-7-7-7-7-7-7-7-7-7-7-7-7-7-7-7-7-|

Guitar 1
e| |---------------------------------|---------------------------------|
B| |--------12-----------------------|---------------------------------|
G| |----12----------12--14-----------|---------------------------------|
D| |14----------12----------10~~~----|-\~~~----------------------------|
A| |---------------------------------|---------------------------------|
E| |---------------------------------|---------------------------------|
    home...                                                            |
                                                                       |
Guitar 2                                                               |
e| |---------------------------------|---------------------------------|
B| |---------------------------------|---------------------------------|
G| |---------------------------------|---------------------------------|
D| |-7~~~--------9~~~-------10~~~----|---------------------------------|
A| |-7~~~--------9~~~-------10~~~----|---------------------------------|
E| |-5~~~--------7~~~--------8~~~----|---------------------------------|

 _____________________
|Interlude (2:08-2:20)|
|_____________________|

Guitar 1 & 2
e| |---------------------------------|---------------------------------|
B| |---------------------------------|---------------------------------|
G| |---------------------------------|---------------------------------|
D| |---------------------------------|---------------------------------|
A| |---------------------------------|---------------------------------|
E| |---------------------------------|---------------------------------|
     Encinitas likes to miss me,              like nobody's child

 ______________________
|Pre-Chorus (2:21-2:30)|
|______________________|

Guitar 1 (Clean)
e| |-----------------------------0---|---------------------------------|
B| |-----0-------0-------0---------0-|-----0-------0-------------------|
G| |-------0-------0-------0---0-----|-------0-------0-----------------|
D| |---2-------5-------5-------------|---2-------5---------------------|
A| |-3-------6-------7-------8-------|-3-------6-----------------------|
E| |---------------------------------|---------------------------------|
    And my eyes like rainy Tuesday,        like to watch you           |
                                                                       |
Guitar 2 (Slight Distortion)                                           |
e| |-------3-------3-------5-------3-|-------3-------3-----------------|
B| |-----0-------0-------0-------0---|-----0-------0-------------------|
G| |---0-------0-------0-------0-----|---0-------0---------------------|
D| |---------------------------------|---------------------------------|
A| |---------------------------------|---------------------------------|
E| |---------------------------------|---------------------------------|

 __________________
|Chorus (2:30-2:54)|
|__________________|

Guitar 1
e| |---------------------------------|---------------------------------|
B| |---------------------------------|---------------------------------|
G| |17--17--17--17-\16--16-\14--14-\-|12--12--12--12-/14--14--14--14-/-|
D| |-x---x---x---x---x---x---x---x---|-x---x---x---x---x---x---x---x---|
A| |15--15--15--15-\14--14-\12--12-\-|10--10--10--10-/12--12--12--12-/-|
E| |---------------------------------|---------------------------------|
    smile...                                                           |
                                                                       |
Guitar 2                                                               |
e| |(0---0---0---0---0---0---0---0)--|(0---0---0---0---0---0---0---0)--|
B| |(0---0---0---0---0---0---0---0)--|(0---0---0---0---0---0---0---0)--|
G| |(0---0---0---0---0---0---0---0)--|(0---0---0---0---0---0---0---0)--|
D| |-5---5---5---5---5---5---5---5-\-|-4---4---4---4---2---2---2---2---|
A| |-5---5---5---5---5---5---5---5---|-5---5---5---5---2---2---2---2---|
E| |-3---3---3---3---3---3---3---3-\-|-2---2---2---2---0---0---0---0---|

Guitar 1
e| |---------------------------------|---------------------------------|
B| |---------------------------------|---------------------------------|
G| |17--17--17--17-\16--16-\14--14-\-|12--12--12--12-/14--14--14--14-/-|
D| |-x---x---x---x---x---x---x---x---|-x---x---x---x---x---x---x---x---|
A| |15--15--15--15-\14--14-\12--12-\-|10--10--10--10-/12--12--12--12-/-|
E| |---------------------------------|---------------------------------|
    smile...                                         Like to watch you |
                                                                       |
Guitar 2                                                               |
e| |(0---0---0---0---0---0---0---0)--|(0---0---0---0---0---0---0---0)--|
B| |(0---0---0---0---0---0---0---0)--|(0---0---0---0---0---0---0---0)--|
G| |(0---0---0---0---0---0---0---0)--|(0---0---0---0---0---0---0---0)--|
D| |-2---2---2---2---2---2---2---2---|-2---2---2---2---3---3---3---3-/-|
A| |-2---2---2---2---2---2---2---2---|-2---2---2---2---3---3---3---3-/-|
E| |-0---0---0---0---0---0---0---0---|-0---0---0---0---1---1---1---1-/-|

Guitar 1
e| |---------------------------------|---------------------------------|
B| |---------------------------------|---------------------------------|
G| |17--17--17--17-\16--16-\14--14-\-|12--12--12--12-/14--14--14--14-/-|
D| |-x---x---x---x---x---x---x---x---|-x---x---x---x---x---x---x---x---|
A| |15--15--15--15-\14--14-\12--12-\-|10--10--10--10-/12--12--12--12-/-|
E| |---------------------------------|---------------------------------|
    smile...                                                           |
                                                                       |
Guitar 2                                                               |
e| |(0---0---0---0---0---0---0---0)--|(0---0---0---0---0---0---0---0)--|
B| |(0---0---0---0---0---0---0---0)--|(0---0---0---0---0---0---0---0)--|
G| |(0---0---0---0---0---0---0---0)--|(0---0---0---0---0---0---0---0)--|
D| |-5---5---5---5---5---5---5---5-\-|-4---4---4---4---2---2---2---2---|
A| |-5---5---5---5---5---5---5---5---|-5---5---5---5---2---2---2---2---|
E| |-3---3---3---3---3---3---3---3-\-|-2---2---2---2---0---0---0---0---|

Guitar 1
e| |---------------------------------|---------------------------------|
B| |---------------------------------|---------------------------------|
G| |17--17--17--17-\16--16-\14--14-\-|19--19--19--19--19--19--19--19---|
D| |-x---x---x---x---x---x---x---x---|-x---x---x---x---x---x---x---x---|
A| |15--15--15--15-\14--14-\12--12-\-|17--17--17--17--17--17--17--17---|
E| |---------------------------------|---------------------------------|
    smile...                                                 And I'm   |
                                                                       |
Guitar 2                                                               |
e| |(0---0---0---0---0---0---0---0)--|(0---0---0---0---0---0---0---0)--|
B| |(0---0---0---0---0---0---0---0)--|(0---0---0---0---0---0---0---0)--|
G| |(0---0---0---0---0---0---0---0)--|(0---0---0---0---0---0---0---0)--|
D| |-2---2---2---2---2---2---2---2---|-2---2---2---2---3---3---3---3---|
A| |-2---2---2---2---2---2---2---2---|-2---2---2---2---3---3---3---3---|
E| |-0---0---0---0---0---0---0---0---|-0---0---0---0---1---1---1---1---|

 __________________
|Bridge (2:54-3:28)|
|__________________|

Guitar 1
e| |---------------------------------|---------------------------------|
B| |-----------------9-------9---/---|15--13--12--13--12--10--12--10---|
G| |----12------12------12-----------|---------------------------------|
D| |12------12-----------------------|---------------------------------|
A| |---------------------------------|---------------------------------|
E| |---------------------------------|---------------------------------|
    here...                           wondering where the sun has      |
                                                                       |
Guitar 2                                                               |
e| |---------------------------------|---------------------------------|
B| |---------------------------------|---------------------------------|
G| |---------------------------------|---------------------------------|
D| |-7-7-7-7-7-7-7-7-7-7-7-7-7-7-7-7-|-9-9-9-9-9-9-9-9-9-9-9-9-9-9-9-9-|
A| |-7-7-7-7-7-7-7-7-7-7-7-7-7-7-7-7-|-9-9-9-9-9-9-9-9-9-9-9-9-9-9-9-9-|
E| |-5-5-5-5-5-5-5-5-5-5-5-5-5-5-5-5-|-7-7-7-7-7-7-7-7-7-7-7-7-7-7-7-7-|

Guitar 1
e| |---------------------------------|---------------------------------|
B| |-----------(15)--9-------9---/---|15--13--12--13--12--10--12--10---|
G| |----12--------------12-----------|---------------------------------|
D| |14------14-----------------------|---------------------------------|
A| |---------------------------------|---------------------------------|
E| |---------------------------------|---------------------------------|
    gone...                           driving through the Midwest      |
                                                                       |
Guitar 2                                                               |
e| |---------------------------------|---------------------------------|
B| |---------------------------------|---------------------------------|
G| |---------------------------------|---------------------------------|
D| |10101010101010101010101010101010-|-9-9-9-9-9-9-9-9-9-9-9-9-9-9-9-9-|
A| |10101010101010101010101010101010-|-9-9-9-9-9-9-9-9-9-9-9-9-9-9-9-9-|
E| |-8-8-8-8-8-8-8-8-8-8-8-8-8-8-8-8-|-7-7-7-7-7-7-7-7-7-7-7-7-7-7-7-7-|

Guitar 1
e| |---------------------------------|---------------------------------|
B| |-----------------9-------9---/---|15--13--12--13--12--10--12--10---|
G| |----12------12------12-----------|---------------------------------|
D| |12------12-----------------------|---------------------------------|
A| |---------------------------------|---------------------------------|
E| |---------------------------------|---------------------------------|
    storm...                          asking why there's no one        |
                                                                       |
Guitar 2                                                               |
e| |---------------------------------|---------------------------------|
B| |---------------------------------|---------------------------------|
G| |---------------------------------|---------------------------------|
D| |-7-7-7-7-7-7-7-7-7-7-7-7-7-7-7-7-|-9-9-9-9-9-9-9-9-9-9-9-9-9-9-9-9-|
A| |-7-7-7-7-7-7-7-7-7-7-7-7-7-7-7-7-|-9-9-9-9-9-9-9-9-9-9-9-9-9-9-9-9-|
E| |-5-5-5-5-5-5-5-5-5-5-5-5-5-5-5-5-|-7-7-7-7-7-7-7-7-7-7-7-7-7-7-7-7-|

Guitar 1
e| |---------------------------------|---------------------------------|
B| |--------12-----------------------|---------------------------------|
G| |----12----------12--14-----------|---------------------------------|
D| |14----------12----------10~~~----|---------------------------------|
A| |---------------------------------|---------------------------------|
E| |---------------------------------|---------------------------------|
  1. home...                                                           |
  2. No one home...                                                    |
  3. No one home...                                                    |
                                                                       |
Guitar 2                                                               |
e| |---------------------------------|---------------------------------|
B| |---------------------------------|---------------------------------|
G| |---------------------------------|---------------------------------|
D| |-7~~~--------9~~~-------10~~~----|---------------------------------|
A| |-7~~~--------9~~~-------10~~~----|---------------------------------|
E| |-5~~~--------7~~~--------8~~~----|---------------------------------|

 _________________
|Outro (3:29-3:45)|
|_________________|

Guitar 1
e| |---------------------------------|---------------------------------|
B| |---------------------------------|---------------------------------|
G| |17--17--17--17-\16--16-\14--14-\-|12--12--12--12-/14--14--14--14---|
D| |-x---x---x---x---x---x---x---x---|-x---x---x---x---x---x---x---x---|
A| |15--15--15--15-\14--14-\12--12-\-|10--10--10--10-/12--12--12--12---|
E| |---------------------------------|---------------------------------|
                                                                       |
Guitar 2 (Slight Distortion)                                           |
e| |-3---3---3---3---3---3---3---3-3-|-3---3---3---3---3---3---3---3-3-|
B| |-3---3---3---3---3---3---3---3-3-|-3---3---3---3---3---3---3---3-3-|
G| |-0---0---0---0---0---0---0---0-0-|-0---0---0---0---0---0---0---0-0-|
D| |-0---0---0---0---0---0---0---0-0-|-0---0---0---0---0---0---0---0-0-|
A| |-2---2---2---2---2---2---2---2-2-|-2---2---2---2---2---2---2---2-2-|
E| |-3---3---3---3---3---3---3---3-3-|-3---3---3---3---3---3---3---3-3-|

Guitar 1
e| |---------------------------------|-0~~~----------------------------|
B| |---------------------------------|-0~~~----------------------------|
G| |17--17--17--17-\16--16-\14--14-\-|12~~~----------------------------|
D| |-x---x---x---x---x---x---x---x---|-x-------------------------------|
A| |15--15--15--15-\14--14-\12--12-\-|10~~~----------------------------|
E| |---------------------------------|---------------------------------|
                                                                       |
Guitar 2 (Slight Distortion)                                           |
e| |-3---3---3---3---3---3---3---3-3-|-0~~~----------------------------|
B| |-3---3---3---3---3---3---3---3-3-|-0~~~----------------------------|
G| |-0---0---0---0---0---0---0---0-0-|-0~~~----------------------------|
D| |-0---0---0---0---0---0---0---0-0-|-0~~~----------------------------|
A| |-2---2---2---2---2---2---2---2-2-|-2~~~----------------------------|
E| |-3---3---3---3---3---3---3---3-3-|-3~~~----------------------------|


 ________
| Legend |
|________|

(15) - Slightly played
~    - Sustain
/    - Slide up
\    - Slide down
x    - Mute

 _______
| Notes |
|_______|

When playing the octaves on Guitar 1, the G string is very slightly played.
You could just choose to not play that strings but just the A string. The
intro might be accompanied by a piano, but I think my guitar part should do just fine.
Добавлено: 09.04.2012
Другие материалы по этой песне:
  • Аккорды и текст

Страница создана 09.04.2012
http://primanota.ru/augustana/californias-burning-chords.htm
Привет, Гость.
Предлагаем пройти революционный курс по гитаре.
Подарок от PrimaNota.Ru, забирай!