PrimaNota.ru - самый крупный в мире бесплатный архив песенных текстов, аккордов, табулатур и нот


August Burns Red - Truth Of A Liar - текст песни, таба, бас-таба, видео

Регистрация Запомнить меня
Войти через:  Facebook Google Twitter Vk Yandex Mail.ru

August Burns Red - Truth Of A Liar - текст песни, таба, бас-таба, видео

Печатать
Просмотров: 219
Hey i took me a crap load of time to convert this so here you go enjoy it!

-----AUGUST BURNS RED-----
-----Truth Of A Liar-----

Intro
||----------------------------------------------------------------|
||----------------------------------------------------------------|
||----------------------------------------------------------------| X 2 
||------------12--------14--------15--14--12----------------------|
||-12--12--12----12--12-----12--12--------------------------------|
||-.---.----.-----.---.------.---.--------------------------------|
    
||----------------------------------------------------------------|
||----------------------------------------------------------------|
||----------------------------------------------------------------|
||----------------------------------------------------------------|
||-8--8--8--12--8--12--8--8--8--12--8--12-------------------------|
||-.--.--.------.------.--.--.------.-----------------------------|

||----------------------------------------------------------------|
||----------------------------------------------------------------|
||------------------------------9-----9---------------------------|
||----------11-----11---------------------------------------------|
||-7--7--7------7------7--7--7-----7-----7------------------------|
||-.--.--.------.------.--.--.-----.-----.------------------------|

||----------------------------------------------------------------|
||----------------------------------------------------------------|
||----------------------------------------------------------------| X 2 
||------------12--------14--------15--14--12----------------------|
||-12--12--12----12--12-----12--12--------------------------------|
||-.---.----.-----.---.------.---.--------------------------------|
    
||----------------------------------------------------------------|
||----------------------------------------------------------------|
||----------------------------------------------------------------|
||----------------------------------------------------------------|
||-8--8--8--12--8--12--8--8--8--12--8--12-------------------------|
||-.--.--.------.------.--.--.------.-----------------------------|


||----------------------------------------------------------------|
||----------------------------------------------------------------|
||------------------------------9---------------------------------|
||----------11-----11---------------------------------------------|
||-7--7--7------7------7--7--7------------------------------------|
||-.--.--.------.------.--.--.------------------------------------|

Play this next section four times
===================================================================

||----------------------------------------------------------------|
||----------------------------------------------------------------|      
||----------------------------------------------------------------| X 2  
||-------------12----------14--------------15--14--12-------------|      
||-12--12--12------12--12------12--12--12-------------------------|      
||--.---.---.-------.---.-------.---.---.-------------------------|      
		     1					 2,3,4
||------------------------------------------|----------------------------------|
||------------------------------------------|----------------------------------|
||------------------------------------------|----------------------------------|
||------------------------------------------|----------------------------------|
||-8--8--8--12--10--12--8--8--8--12--10--12-|-8-8-8-12-12-12-10-10-10-12-12-12-|
||-.--.--.--------------.--.--.-------------|----------------------------------|

||----------------------------------------------------------------|
||----------------------------------------------------------------|
||------------------------------9-----9---------------------------|
||----------11-----11---------------------------------------------|
||-7--7--7------7------7--7--7-----7------------------------------|
||-.--.--.------.------.--.--.-----.------------------------------|

===================================================================

||----------------------------------------------------------------|------------|
||----------------------------------------------------------------|------------|      
||----------------------------------------------------------------|------------|  
||-------------12----------14--------------15--14--12---------0---|---7h8p7----|      
||-12--12--12------12--12------12--12--12---------------------0---|----------8-|      
||--.---.---.-------.---.-------.---.---.---------------------0---|------------|  

===================================================================
Verse
This Part four times
||----------------------------------------------------------------|
||----------------------------------------------------------------|
||----------------------------------------------------------------|
||----------7-----5h8-------------------8p7-----------------------|
||-5-----8----------------7p0-----5----------8--------------------|
||----0--------0-------0-------8-----0----------------------------|    
      .        .       .             .
			      1st,3rd,4th Time             2nd Time
||-------------------------|----------------------|------------------------|
||-------------------------|----------------------|------------------------|
||-------------------------|-7--10p9--------------|------------------------|
||----------7-----5h8------|----------8p7---------|----------------8--7----|
||-5-----8-----------------|---------------10-----|----------------------8-|
||----0--------0-------0---|----------------------|-7--7--8--8--0----------|
      .        .       .					.
==================================================================
         This part X 3               Then this after that
||------------------------------|-----------------------------|
||------------------------------|-----------------------------|
||------------------------------|-----------------------------|
||---------------8--7-----------|-----------------------------| 
||-5--0-0-0-0-0--------8--------|-5--0-0-0-0------------------|
||----0-0-0-0-0-----------------|----0-0-0-0------------------|
      . . . . .                      . . . .
||----------------------------------------------------------------|
||----------------------------------------------------------------|
||----------------------------------------------------------------|
||-3----3--3--3----3--5--5--5--5----------------------------------|
||-3----3--3--3----3--5--5--5--5--0--0--0--0----------------------|
||-3----3--3--3----3--5--5--5--5--0--0--0--0----------------------|
                                  .  .  .  .
||--------------------------------------------------------------------------------|
||--------------------------------------------------------------------------------|
||--------------------------------------------------------------------------------|
||-------------8--7-------------------8--7------------------8--7--8---------------|
||-0-0-0-0-0-0--------8--5--0-0-0-0-0-------8--5--0-0-0-0-0----------5--0-0-0-0---|
||-0-0-0-0-0-0--------------0-0-0-0-0-------------0-0-0-0-0-------------0-0-0-0---|
   . . . . . .              . . . . .             . . . . .             . . . .
||----------------------------------------------------------------|
||----------------------------------------------------------------|
||----------------------------------------------------------------|
||-3----3--3--3----3--5--5--5--5----------------------------------|
||-3----3--3--3----3--5--5--5--5--0--0--0--0----------------------|
||-3----3--3--3----3--5--5--5--5--0--0--0--0----------------------|
                                  .  .  .  .
Breakdown A
||-----------------------------------------------------------------------------------|
||-----------------------------------------------------------------------------------|
||-----------------------------------------------------------------------------------|
||-----------------------------8--7---------------------------------------8--7-------|
||-0-0-0-0-0-0-----0-0-0-0--5--------5--0-0-0-0-0----0-0-0----0-0-0-0--5--------8----|
||-0-0-0-0-0-0-----0-0-0-0--------------0-0-0-0-0----0-0-0----0-0-0-0----------------|
   . . . . . .     . . . .              . . . . .    . . .    . . . .
||-------------------------------------------------------------------------------------|
||-------------------------------------------------------------------------------------|
||-------------------------------------------------------------------------------------|
||-------------------------------8--7--------------------------------------------------|
||-5--0-0-0-0-0------0-0-0-0--5--------8--5--0-0-0-0-0---0-0-0----0-0-0-0-0-0-0-0-0-0--|
||----0-0-0-0-0------0-0-0-0-----------------0-0-0-0-0---0-0-0----0-0-0-0-0-0-0-0-0-0--|
      . . . . .      . . . .                 . . . . .   . . .    . . . . . . . . . .
||-----------------------------------------------------------------------------------|
||-----------------------------------------------------------------------------------|
||-----------------------------------------------------------------------------------|
||----0---------------------------------------------------------------------0--------|
||----0---------------------------------------------------------------------0--------|
||----0---------------------------------------------------------------------0--------|

Intro  
 Play this Intro twice
======================================================================
||----------------------------------------------------------------|
||----------------------------------------------------------------|
||----------------------------------------------------------------| X 2 
||------------12--------14--------15--14--12----------------------|
||-12--12--12----12--12-----12--12--------------------------------|
||-.---.----.-----.---.------.---.--------------------------------|
    
||----------------------------------------------------------------|
||----------------------------------------------------------------|
||----------------------------------------------------------------|
||----------------------------------------------------------------|
||-8--8--8--12--8--12--8--8--8--12--8--12-------------------------|
||-.--.--.------.------.--.--.------.-----------------------------|

||----------------------------------------------------------------|
||----------------------------------------------------------------|
||------------------------------9-----9---------------------------|
||----------11-----11---------------------------------------------|
||-7--7--7------7------7--7--7-----7-----7------------------------|
||-.--.--.------.------.--.--.-----.-----.------------------------|

=====================================================================
 then this one twice
||----------------------------------------------------------------|
||----------------------------------------------------------------|
||----------------------------------------------------------------| X 2
||-------------15----------17----------19--17--15-----------------|
||-15--15--15------15--15------15--15-----------------------------|
||--.---.---.-------.---.-------.---.-----------------------------|

||----------------------------------------------------------------|
||----------------------------------------------------------------|
||----------------------------------------------------------------|
||----------------------------------------------------------------|
||-8--8--8--12--8--12--8--8--8--12--8--12-------------------------|
||-.--.--.------.------.--.--.------.-----------------------------|

||----------------------------------------------------------------|
||----------------------------------------------------------------|
||----------------------------9-----9-----------------------------|
||----------7-----7-----------------------------------------------|
||-7--7--7-----7-----7--7--7-----7--------------------------------|
||-.--.--.-----.-----.--.--.-----.--------------------------------|

Build Up
====================================================================
||----------------------------------------------------------------|
||----------------------------------------------------------------|
||-------10-----9-------------------------------------------------|
||-----------------------7----8p7-------7p5--8p7------------------|
||---------------------------------8p5----------------------------|
||-0--0------0-----0--0-------------------------------------------|
   .  .      .     .  . 					     X 2	
||----------------------------------------------------------------|
||----------------------------------------------------------------|
||----------7---------------------------------7h8-----------------|
||----------------8-----7-----5-----7h8--7p5----------------------|
||----------------------------------------------------------------|
||-5--5--5-----5-----5-----5-----5--------------------------------|
   .  .  .     .     .     .     .
====================================================================

||----------------------------------------------------------------|
||----------------------------------------------------------------|
||-------------------9--10p9--------9p7--10p9---------------------|
||-------8-----7--------------10p7--------------------------------|
||----------------------------------------------------------------|
||-0--0-----0-----0-----------------------------------------------|
   .  .     .     .		  1st time	       2nd time	       X 2
||---------------------------|-------------------|--------------------|
||---------------------------|---------------5h6-|--------------------|
||---------------------------|------4h5--4-------|--------------------|
||----------5----------------|-------------7-----|--------------------|
||----------------6-----5----|--3----------------|-5-5-5-5---5-5-5-5--|
||-5--5--5-----5-----5-----5-|-----5-------------|-5-5-5-5---5-5-5-5--|
   .  .  .     .     .     .       .
======================================================================

||---------------------------------------------------------------|
||----------------------------10p8-------------------------------|
||---------------9h10--7-----------10p9--------------------------|
||------------7-------------------------7--7h8h10----------------|
||---------------------------------------------------------------|
||-0-0-0-0-0--------------0-0------------------------------------|
   . . . . .              . .					   X 4
||---------------------------------------------------------------|
||----------------------------10p8-----------11-10-8-------------|
||---------------9h10--7------------10p9-------------------------|
||------------7--------------------------------------------------|
||---------------------------------------------------------------|
||-0-0-0-0-0--------------0-0------------------------------------|
   . . . . .              . .
Breakdown B
                                                  1,2,3                    4
||---------------------------------------|----------------------|----------------------|
||---------------------------------------|----------------------|----------------------|
||---------------------------------------|----------------------|----------------------|
||---------------------------------------|----------------------|----------------------|
||-0-0-0-0-0---0--0---0-0-0-0-0-0-0--0-0-|-0-0-0--0-0-0-0-0-0-0-|-0-0-0---0-0-0-0-0----|
||-0-0-0-0-0---0--0---0-0-0-0-0-0-0--0-0-|-0-0-0--0-0-0-0-0-0-0-|-0-0-0---0-0-0-0-0----|
   . . . . .   .  .   . . . . . . .  . .   . . .  . . . . . . .   . . .   . . . . .
Solo
									   1,2,3
||---------------------------------------------------------------|-----------------------|
||-15---15--151515-----------------------------------------------|-----------------------|
||------------------14---14-14---14h15p14---12---121212---12-----|-------------12---1415-|
||------------------------------------------------------------12-|--12-12---12-----------|
||---------------------------------------------------------------|-----------------------|
||---------------------------------------------------------------|-----------------------|
	 4
||-----------------|
||-----------------|
||-----------------|
||--12--12----12---|
||-----------------|
||-----------------|

Bridge X 2
                                                       "  "
||-------------------------------------------------"--13--10---"-----|
||--"---------"-----------------------------------10----------10-----|
||--7--------10------7--10--9-----7--10--7---------------------------|
||-----------------------------7------------0------------------------|
||-------------------------------------------------------------------|
||-------------------------------------------------------------------|

||---------------------------------------------------------------------------------------|
||---------------------------------------------------------------------------------------|
||--9--10--7--9------7-----------------------------------------------------------------"-|
||---------------10-----9--10--7--9--10--7----------------7-------------------------"--6-|
||------------------------------------------8------7---------7--3--5--3--0--2--3----7----|
||---------------------------------------------12-----10---------------------------------|

Outro
||-------------------------------------------------------------------------------------|
||-------------------------------------------------------------------------------------|
||--------10-------------------10-------------------9-------------------9--------------|
||-------------12-------------------12------------------10------------------10---------|
||---------------------------------------0-0--0-0-0---0----0-0-0--0-0-0---0----0-7-7---|
||-0-0-0-0---0----0-0-0--0-0-0----0----0-----------------------------------------------|
   . . . .   .    . . .  . . .    .    . . .  . . .   .    . . .  . . .   .    . . .
||-------------------------------------------------------------------------------------|
||-------------------------------------------------------------------------------------|
||------------9-------------------9--------------9-------------------9-----------------|
||-------6------6------------6------6----------------10------------------10------------|
||-7-7-7---7------7-7--7-7-7---7------0-0--0-0-0---0----0-0-0--0-0-0---0----0-0--------|
||-------------------------------------------------------------------------------------|
   . . .   .      . .  . . .   .      . .  . . .   .    . . .  . . .   .    . .
||-------------------------------------------------------------------------------------|
||---------10-------------------10-------------------10-------------------10-----------|
||--------------10-------------------10--------------------9-------------------9-------|
||-------------------------------------------------------------------------------------|
||----------------------------------------0-0--0-0-0-----0---0-0-0--0-0-0----0---0-7-7-|
||-0-0-0-0----0----0-0-0--0-0-0----0----0----------------------------------------------|
   . . . .    .    . . .  . . .    .    . . .  . . .     .   . . .  . . .    .   . . .
||-------------------------------------------------------------------------------------|
||-----------9------------------9------------------10------------------10--------------|
||-------9-----9------------9-----9------------9-------------------9-------------------|
||-------------------------------------------------------------------------------------|
||-7-7-7---7-----7-7--7-7-7---7-----0-0--0-0-0---0----0-0-0--0-0-0---0----0-0-0--------|
||-------------------------------------------------------------------------------------|
   . . .   .     . .  . . .   .     . .  . . .   .    . . .  . . .   .    . . .
||----------------------------------------------------------------|
||-----------10---------------------------------------------------|
||-------9--------------------------------------------------------|
||----------------------------------------------------------------|
||-0-0-0---0----0-0-0---0-0-0-0-----------------------------------|
||----------------------------------------------------------------|
   . . .   .    . . .   . . . .
Добавлено: 15.04.2012
Другие материалы по этой песне:

Страница создана 28.02.2012
http://primanota.ru/august-burns-red/truth-of-a-liar-chords.htm
Привет, Гость.
Предлагаем пройти революционный курс по гитаре.
Подарок от PrimaNota.Ru, забирай!