PrimaNota.ru - самый крупный в мире бесплатный архив песенных текстов, аккордов, табулатур и нот


August Burns Red - The Escape Artist - текст песни, таба, видео

Регистрация Запомнить меня
Войти через:  Facebook Google Twitter Vk Yandex Mail.ru

August Burns Red - The Escape Artist - текст песни, таба, видео

Печатать
Просмотров: 132
[The Escape Artist]
[Constellations]
[August Burns Red]

Tuning: CGCFAD (Drop C or Drop D One Step Down)
joshuaoliveira@hotmail.com

Watch the times, some things overlap.
See how many times each riff is played (No indication means 1)
Watch if each part has one guitar or two matching.
Symbols at bottum.

[Riff 1] - [00:05] - [00:14]
- -----------------------------------------------------------------|
- -----------------------------------------------------------------|
- -----------------------------------------------------------------|
- -----------------------------------------------------8---7-------|
- -5-----5---4---5-----8---7---8-------5h8---7---8-------------8---|
- ---0-0---0---0---0-0---0---0---0-0h7-----0---0---0-0---0---0---0-|
PM   ...   .   .   ...   .   .   .         .   .   ...   .   .   .

- -----------------------------------------------------------------|
- -----------------------------------------------------------------|
- -------------------------6---------------------------------------|
- ---------------------7-------7---8-8---5---------------------7---|
- -----5h7---5---7---------------------------6---5---0h1h4p1-------|
- -0h7-----0---0---0-0---0---0---0-----0---0---0---0---------0---0-|
PM         .   .   ...   .   .   .     .   .   .   .         .   .

[Riff 2, Guitar 1 & 2] - [00:14] - [00:24]
- -----------------------------------------------------------------|
- -----------------------------------------------------------------|
- -----------------------------------------------------------------|
- -----------------------------------------------------8---7-------|
- -5-----5---4---5-----8---7---8-------5h8---7---8-------------8---|
- ---0-0---0---0---0-0---0---0---0-0h7-----0---0---0-0---0---0---0-|
PM   ...   .   .   ...   .   .   .         .   .   ...   .   .   .
-
- -----------------------------------------------------------------|
- -----------------------------------------------------------------|
- -----------------------------------------------------------------|
- -----------------------------------------------------8---7-------|
- -5-----5---4---5-----8---7---8-------5h8---7---8-------------8---|
- ---0-0---0---0---0-0---0---0---0-0h7-----0---0---0-0---0---0---0-|
PM   ...   .   .   ...   .   .   .         .   .   ...   .   .   .


- -----------------------------------------------------------------|
- -----------------------------------------------------------------|
- -------------------------6---------------------------------------|
- ---------------------7-------7---8-8---5---------------------7---|
- -----5h7---5---7---------------------------6---5---0h1h4p1-------|
- -0h7-----0---0---0-0---0---0---0-----0---0---0---0---------0---0-|
PM         .   .   ...   .   .   .     .   .   .   .         .   .
-
- -----------------------------------------------------------------|
- -----------------------------------------------------------------|
- -------------------------6---------------------------------------|
- ---------------------7-------7---8-8---5---------------------7---|
- -----5h7---5---7---------------------------6---5---0h1h4p1-------|
- -0h7-----0---0---0-0---0---0---0-----0---0---0---0---------0---0-|
PM         .   .   ...   .   .   .     .   .   .   .         .   .


- -----------------|
- -----------------|
- -7---------------|
- -----------------|
- -------000-------|
- -------000-------|
PM       ...
-
- -----------------|
- -----------------|
- -7---------------|
- -----------------|
- ---000-----------|
- ---000-----------|
PM   ...

----------------------------------------------------------------------------

[Riff 3] - [00:24] - [00:33]----------------------------------------------| 2x
- ------------------------------------------------------------------------|
- ------------------------------------------------------------------------|
- -7----------------------------------7-----------------------------------|
- -----------0h7h8p7--7h8p7p0-5h7p5p0-----------0h7h8p7--7h8p7p0-5h7p5p0--|
- ------------------------------------------------------------------------|
- ---000-000--------0-------------------0-00000--------0------------------|
PM   .......        .                   .......        .

- ---------|
- ---------|
- -------6-|
- -----7---|
- -7-8-----|
- ---------|

----------------------------------------------------------------------------

[Riff 4, Guitar 1 & 2] - [00:33] - [00:47]
- ------------------------------------------------------------------------|
- ------------------------------------------------------------------------|
- -7-------------------------------------7------------------------------6-|
- ---------------------------0h7h8p7p0h7------------------------------7---|
- ---000-000---00-00-----000---------------0000000---000-000---00-7-8-----|
- ---000-000---00-00-----000---------------0000000---000-000---00---------|
PM   .......................               ......................
-
- ------------------------------------------------------------------------|
- ----------------------------------------------------------------------5-|
- -7-------------------------------------7----------------------------6---|
- ---------------------------0h7h8p7p0h7----------------------------------|
- ---000-000---00-00-----000---------------0000000---000-000---00-0-5-----|
- ---000-000---00-00-----000---------------0000000---000-000---00---------|


- ------------------------------------------------------------------------|
- ------------------------------------------------------------------------|
- -7-------------------------------------7------------------------------6-|
- ---------------------------0h7h8p7p0h7------------------------------7---|
- ---000-000---00-00-----000---------------0000000---000-000---0--7-8-----|
- ---000-000---00-00-----000---------------0000000---000-000---0----------|
PM   .......................               .....................
-
- ------------------------------------------------------------------------|
- -6----------------------------------------------------------------------|
- --------------------------------------10--------------------------------|
- ---------------------------0h7h8p7p0h7----------------------------------|
- ---000-000---00-00-----000---------------0000000---000-000---0-0000---0-|
- ---000-000---00-00-----000---------------0000000---000-000---0-0000---0-|
PM   .......................               ..............................


- -------------6-5-----------|
- -----------6-----6-8-5-----|
- -/10p0-5-7-----------------|
- ---------------------------|
- ---------------------------|
- ---------------------------|
-
- ---------------------------|
- ---------------------------|
- ---------------------------|
- ---------------------------|
- -----0000000---0---000-----|
- -----0000000---0---000-----|
PM     .................

----------------------------------------------------------------------------

[Riff 5] - [00:47] - [00:58]--------------------------------| 2x
- ----------------------------------------------------------|
- ----------------------------------------------------------|
- -----------------(Let Notes Ring)-------------------------|
- ----------------------------------------------------------|
- -0000--0---0000000---0---000---0---000000---00-00-000000--|
- -0000--0---0000000---0---000---0---000000---00-00-000000--|
PM .......................................................

[Riff 6] - [00:58] - [01:01]
- ---------------------------------|
- ---------------------------------|
- ---------------------------------|
- ---------------------------------|
- -0000--0---0000000---0---0000----|
- -0000--0---0000000---0---0000----|
PM ............................

----------------------------------------------------------------------------

[Riff 7, Guitar 1 & 2] - [01:01] - [01:06
- ---------------------------------------------------------|
- -6---6---5-----6---6---5-----6---6---5-----6---6---5-----|
- ---7---6---6-----7---6---6-----7---6---6-----7---6---6---|
- -------------7-------------7-------------7-------------7-|
- ---------------------------------------------------------|
- ---------------------------------------------------------|
-
- ---------------------------------------------------------|
- ---------------------------------------------------------|
- ---------------------------------------------------------|
- ---------------------------------------------------------|
- -0000--0---0000000---0---000---0---000000---00-00-000000-|
- -0000--0---0000000---0---000---0---000000---00-00-000000-|
PM .......................................................


- ---------------------------------------------------------9-|
- -10--10--9-----10--10--9-----10--10--9-----10-8-10--10-8---|
- ---10--9---9-7---10--9---9-7---10--9---9-7--------10-------|
- -----------------------------------------------------------|
- -----------------------------------------------------------|
- -----------------------------------------------------------|
-
- -----------------------------------------------------------|
- -----------------------------------------------------------|
- -----------------------------------------------------------|
- -----------------------------------------------------------|
- -0000--0---0000000---0---000---0---000000---00-00-000000---|
- -0000--0---0000000---0---000---0---000000---00-00-000000---|
PM .......................................................

----------------------------------------------------------------------------

[Riff 8, Guitar 1 & 2] - [01:11] - [01:16]
- ------------------------------------------------------------------------|
- ------------------------------------------------------------------------|
- ------------------------------------------------------------------------|
- ------------------------------------------------------------------------|
- -000---------------0-00000--------------------000---------------0-0-000-|
- -000---------------0-00000--------------------000---------------0-0-000-|
PM ......................................................................
-
- -10h13p10-----------------------------------9-10h13p10------------------|
- ----------11---------------11-10----10---10------------11---------------|
- -------------10------------------12----9------------------10------------|
- ----------------12-------------------------------------------12---------|
- -------------------0-00000--------------------------------------0-0-000-|
- -------------------0-00000--------------------------------------0-0-000-|
PM                   .......                                      .......


- ------------------9-|
- -11-10----10---10---|
- -------12----9------|
- --------------------|
- --------------------|
- --------------------|
-
- ------------------9-|
- -11-10----10---10---|
- -------12----9------|
- --------------------|
- --------------------|
- --------------------|

[Riff 9] - [01:16] - [01:26]-----------------------------------------------| 4x
- -10h13p10-----------------------------------9-10h13p10-------------------|
- ----------11---------------11-10----10---10------------11----------------|
- -------------10------------------12----9------------------10-------------|
- ----------------12-------------------------------------------12----------|
- -------------------0-00000--------------------------------------0-0-000--|
- -------------------0-00000--------------------------------------0-0-000--|
PM                   .......                                      .......

- ------------------9-|---------------------|
- -11-10----10---10---|-11-10----10---------|
- -------12----9------|-------12----9-10----| (End With This On Last Time)
- --------------------|------------------11-|
- --------------------|---------------------|
- --------------------|---------------------|

----------------------------------------------------------------------------

[Riff 10] - [01:26] - [01:37]------------------------------------| 2x
- ---------------------------------------------------------------|
- ---------------------------------------------------------------|
- ---------------------------------------------------------------|
- -7b----7b--------7b----------------8-7b----7b---------7-----8--|
- --------------------------10-10-10------------------------9----|
- -----00----0-0-00--0-00-0--------------00-------0-0-00--0------|
PM     ..    ......  ......              ..       ......  .

[Riff 11, Guitar 1 & 2] - [01:37] - [01:50]
- -------------------------------------------------------------|
- -------------------------------------------------------------|
- -------------------------------------------------------------|
- -7b----7b--------7b---------------8-7b----7b---------7-----8-|
- -------------------------10-10-10------------------------9---|
- -----00----0-0-00--0-00-0-------------00-------0-0-00--0-----|
PM     ..    ......  ......             ..       ......  .
-
- -------------------------------------------------------------|
- -------------------------------------------------------------|
- -7b----7b--------7b---------------8-7b----7b---------7-----8-|
- -------------------------10-10-10------------------------9---|
- -------------------------------------------------------------|
- -----00----0-0-00--0-00-0-------------00-------0-0-00--0-----|
PM     ..    ......  ......             ..       ......  .


- -------------------------------------------------------------------|
- -------------------------------------------------------------------|
- -------------------------------------------------------------------|
- -7b----7b--------7b---------------8-7b----7b---------7-------------|
- -------------------------10-10-10-----------------------8---666555-|
- -----00----0-0-00--0-00-0-------------00-------0-0-00-00-00--------|
PM     ..    ......  ......             ..       ...... .. ..
-
- -------------------------------------------------------------------|
- -------------------------------------------------------------------|
- -------------------------------------------------------------------|
- -7b----7b--------7b---------------8-7b----7b-----------------------|
- -------------------------10-10-10--------------------7-------------|
- --------------------------------------------------------8---666555-|
- -----00----0-0-00--0-00-0-------------00-------0-0-00-00-00--------|
PM     ..    ......  ......             ..       ...... .. ..

----------------------------------------------------------------------------

[Riff 12] - [01:50] - [01:56]-----------------------| 2x
- --------------------------------------------------|
- --------------------------------------------------|
- --------------------------------------------------|
- --------------------------------------------------|
- -------5---5-------5---5-------8---8-------6---6--|
- -5-5-5---5---5-5-5---5---5-5-5---5---5-5-5---5----|
PM .....   .   .....   .   .....   .   .....   .

[Riff 13] - [01:56] - [02:17]-----------------------| 4x
- --------------------------------------------------|
- --------------------------------------------------|
- --------------------------------------------------|
- -----------8-----------8-----------8-----------8--|
- -------5-----------5-----------8-----------6------|
- -5-5-5---5---5-5-5---5---5-5-5---5---5-5-5---5----|
PM .....   .   .....   .   .....   .   .....   .

[Riff 14, Guitar 1 & 2] - [02:03] - [02:17]
- -------------------------------------------------|
- -------------------------------------------------|
- -------------------------------------------------|
- -------------------------------------------------|
- -5-5-5-5-5-5-5-5-5-5-5-5-8-8-8-8-8-8-6-6-6-6-6-6-|
- -------------------------------------------------|
-
- -------------------------------------------------|
- -------------------------------------------------|
- ---------------------------7-7-7-7-7-7-5-5-5-5-5-|
- -7/8-8-8-8-8-8-8-8-8-8-8-8-----------------------|
- -------------------------------------------------|
- -------------------------------------------------|


- --------------------------------------------------|
- --------------------------------------------------|
- --------------------------------------------------|
- -------------------------------------5-5-5-7-7-7--|
- -5-5-5-5-5-5-5-5-5-5-5-5-8-8-8-8-8-8--------------|
- --------------------------------------------------|
-
- --------------------------------------------------|
- --------------------------------------------------|
- ---------------------------7-7-7-7-7-8-8-8-101010-|
- -7/8-8-8-8-8-8-8-8-8-8-8-8------------------------|
- --------------------------------------------------|
- --------------------------------------------------|


- -------------------------------------------------|
- -------------------------------------------------|
- -------------------------------------------------|
- -----------8-----------8-----------8-----------8-|
- -5-5-5-5-5---5-5-5-5-5---8-8-8-8-8---6-6-6-6-6---|
- -------------------------------------------------|
-
- -------------------------------------------------|
- -------------------------------------------------|
- ---------------------------7-7-7-7-7-7-5-5-5-5-5-|
- -7/8-8-8-8-8-8-8-8-8-8-8-8-----------------------|
- -------------------------------------------------|
- -------------------------------------------------|


- --------------------------------------------------|
- --------------------------------------------------|
- --------------------------------------------------|
- -----------8-----------8-----------8-------8------|
- -5-5-5-5-5---5-5-5-5-5---8-8-8-8-8---6-6-6-6------|
- -------------------------------------------6------|
-
- -----------------------------------------------------|
- -----------------------------------------------------|
- ---------------------------7-7-7-7-7-8-8-8-101010-7~-|
- -7/8-8-8-8-8-8-8-8-8-8-8-8---------------------------|
- -----------------------------------------------------|
- -----------------------------------------------------|

----------------------------------------------------------------------------

[Riff 15] - [02:17] - [02:45]-----------------------| 2x
- --------------------------------------------------|
- --------------------------------------------------|
- --------------------------------------------------|
- -8-----------------------5-5-5-5-5-5-5-8-8-8-8-5--|
- -6-----5-5-5-5-5-5-5-5-5-6-6-6-6-6-6-6-101010106--|
- -5-----5-5-5-5-5-5-5-5-5-5-5-5-5-5-5-5-8-8-8-8-5--|
PM       .................

- -------------------------------------------------|
- -------------------------------------------------|
- -------------------------------------------------|
- -8-----------------------5-5-5-5-5-5-5-8-8-8-8-5-|
- -6-----5-5-5-5-5-5-5-5-5-6-6-6-6-6-6-6-101010106-|
- -5-----5-5-5-5-5-5-5-5-5-5-5-5-5-5-5-5-8-8-8-8-5-|
PM       .................

- -------------------------------------------------|
- -------------------------------------------------|
- -------------------------------------------------|
- -8-----------------------5-5-5-5-5-5-8-8-8-5-5-5-|
- -6-5-5-5-5-5-5-555-5-5-5-6-6-6-6-6-6-1010106-6-6-|
- -5-5-5-5-5-5-5-555-5-5-5-5-5-5-5-5-5-8-8-8-5-5-5-|
PM   .....................

- --------------------------------------------------|
- --------------------------------------------------|
- --------------------------------------------------|
- -8-----------------------5-5-5-5-5-5-8-8-8-8-8-8--|
- -6-5-5-5-5-5-5-555-5-5-5-6-6-6-6-6-6-101010101010-|
- -5-5-5-5-5-5-5-555-5-5-5-5-5-5-5-5-5-8-8-8-8-8-8--|
PM   .....................

----------------------------------------------------------------------------

[Riff 17] - [02:31] - [02:45]-----------------------| 4x
- -5-----5-----5-----5-----8-----8-----6-----6------|
- ---6-----6-----6-----6-----6-----6-----6-----6----|
- -----7-----7-----7-----7-----7-----7-----7-----7--|
- --------------------------------------------------|
- --------------------------------------------------|
- --------------------------------------------------|

----------------------------------------------------------------------------

[Riff 19] - [02:45] - [02:59]------------------------| 2x
- ---------------------------------------------------|
- ---------------------------------------------------|
- ---------------------------------------------------|
- ------------------------------------------0-----0--|
- -1-1-1-1---1---1-1-1-1---1----1-1-1-1---1-----1----|
- -1-1-1-1---1---1-1-1-1---1----1-1-1-1-3-----3------|
PM ........................................   ...

- --------------------------------------------------|------------|
- --------------------------------------------------|-(end with)-|
- --------------------------------------5-5-5-7-7-7-|------------| play on
- --------------------------------------3-3-3-3-3-3-|-10---7-----| 2nd time
- -1-1-1-1---1---1-1-1-1---1----1-1-1-1-------------|-8----5-----|
- -1-1-1-1---1---1-1-1-1---1----1-1-1-1-------------|-8----5-----|
PM ....................................

----------------------------------------------------------------------------

[Riff 20] - [02:59] - [03:58] - 1-------------------|2x
- --------------------------------------------------|
- --------------------------------------------------|
- --------------------------------------------------|
- -8-----------------------5-5-5-5-5-5-5-8-8-8-8-5--|
- -6-----5-5-5-5-5-5-5-5-5-6-6-6-6-6-6-6-101010106--|
- -5-----5-5-5-5-5-5-5-5-5-5-5-5-5-5-5-5-8-8-8-8-5--|
PM       .................

[Riff 17] - [02:59] - [03:58] - 12x

----------------------------------------------------------------------------

[Symbols] - [

PM... Palm Mute notes with (...) under them
h     Hammer On
p     Pull Off
b     Bend
/     Slide Up
~     Let Ring

:D
Добавлено: 10.05.2012
Другие материалы по этой песне:

Страница создана 26.02.2012
http://primanota.ru/august-burns-red/the-escape-artist-chords.htm
Привет, Гость.
Предлагаем пройти революционный курс по гитаре.
Подарок от PrimaNota.Ru, забирай!