PrimaNota.ru - самый крупный в мире бесплатный архив песенных текстов, аккордов, табулатур и нот


August Burns Red - Sincerity - таба, видео

Регистрация Запомнить меня
Войти через:  Facebook Google Twitter Vk Yandex Mail.ru

August Burns Red - Sincerity - таба, видео

Печатать
Просмотров: 83
||---------------------------------------------------------------|
||-----------------------10101010/-------------------------------|
||---------------------------------------------------------------|
||-0---------------------8-8-8-8/--------------------------------|   
||-0--------------------------------------------------7-8--------|
||-0-0000-8p5-0-7v-0-0-0-----------00000--8p5-0-7v-058-5-5-------|
     xxxx     x    x   x           xx xx      x


||---------------------------------------------------------------|
||-----------------------10101010/-------------------------------|
||------------------------------------------------------9999-----|
||-0---------------------8-8-8-8/-----------------------8888-----|
||-0----------------------------------------------------7777-----|
||-0-0000-8p5-0-7v-0-0-0-----------00000-8p5-0-7v-0-0-0----------|
     xxxx     x    x   x           xx xx     x    x   x


||---------------------------------------------------------------|
||-----------------10--------------------------------------------|
||---------------------------------------------------------9999--|
||-----------------8---------------------------------------8888--|
||-------------------------------5-------------------------7777--|
||--00000-00-8p5-0----00000-/8507--00000-00-8p5-0-7v-0-0-0-------|
    xxxx  xx     x    xxxx         xxxx  xx     x    x   x


||---------------------------------------------------------------|
||-----------------10--------------------------------------------|
||---------------------------------------------------------------|
||-----------------8---------------------------------------------|
||-------------------------------5---------------00--------------|
||--00000-00-8p5-0----00000-/8507--00000-00-8p5--00--------------|
    xxxx  xx     x    xxxx         xxxx  xx      xx 




||---------------------------------------------------------------|
||-18------------------------13----------------------------------|
||----17-------14/10-10-9-10----10-9-14-10-----------------------|
||-------15/14-----------------------------12-10-----------------|
||---------------------------------------------------------------|
||---------------------------------------------------------------|



||---------------------------------------------------------------|
||-18------------------------13----------------------------------|
||----17-------14/10-10-9-10----10-9-14-10-----------------------|
||-------15/14-----------------------------12-10-----------------|
||---------------------------------------------------------------|
||---------------------------------------------------------------|



||---------------------------------------------------------------|
||----------------------13-------------------13------------------|
||-------------10/14-------14----------14-------14---------------|
||-------12-15-------15-------15-14-15----15---------------------|
||-12-15---------------------------------------------------------|
||---------------------------------------------------------------|



||---------------------------------------------------------------|
||----------------------13-------------------13------------------|
||-------------10/14-------14----------14-------14---------------|
||-------12-15-------15-------15-14-15----15---------------------|
||-12-15---------------------------------------------------------|
||---------------------------------------------------------------|



||---------------------------------------------------------------|
||-18------------------------13----------------------------------|
||----17-------14/10-10-9-10----10-9-14-10-----------------------|
||-------15/14-----------------------------12-10-----------------|
||---------------------------------------------------------------|
||---------------------------------------------------------------|



||---------------------------------------------------------------|
||-18------------------------13----------------------------------|
||----17-------14/10-10-9-10----10-9-14-10-----------------------|
||-------15/14-----------------------------12-10-----------------|
||---------------------------------------------------------------|



||---------------------------------------------------------------|
||----------------------13---------------------------------------|
||-------------10/14-------14----------14----12-14---------------| 
||-------12-15-------15-------15-14-15----15---------------------|
||-12-15---------------------------------------------------------|
||---------------------------------------------------------------|



||---------------------------------------------------------------|
||----------------------13---------------------------------------|
||-------------10/14-------14----------14----12-14---------------|
||-------12-15-------15-------15-14-15----15---------------------|
||-12-15---------------------------------------------------------|
||---------------------------------------------------------------|



||---------------------------------------------------------------|
||---------------------------------------------------------------|
||---------------------------------------------------------------|
||-000-000-000-0---000-0-000---000-000---0000000-----------------|
||-000-000-000-0---000-0-000---000-000---0000000-----------------|
||-000-000-000-0---000-0-000---000-000---0000000-----------------|
   xxx xxx xxx x   xxx x xxx   xxx xxx   xxxxxxx


||---------------------------------------------------------------|
||---------------------------------------------------------------|
||---------------------------------------------------------------|
||-000-000-000-0---000-0-000---000-000---------------------------|
||-000-000-000-0---000-0-000---000-000-----/5-8------------------|
||-000-000-000-0---000-0-000---000-000---0---7-5-----------------|
   xxx xxx xxx x   xxx x xxx   xxx xxx   x


||---------------------------------------------------------------|
||---------------------------------------------------------------|
||---------------------------------------------------------------|
||-0-000-000-0---000-0-000---000---------------------------------|
||-0-000-000-0---000-0-000---000-555---5555555-------------------|
||-0-000-000-0---000-0-000---000-333---3333333-------------------|
     xxx xxx x   xxx x xxx   xxx xxx   xxxxxxx


||---------------------------------------------------------------|
||---------------------------------------------------------------|
||---------------------------------------------------------------|
||---------------------------------------------------------------|
||-555-555-555-5---777-7-777---777-777---777777-77---------------|
||-333-333-333-3---555-5-555---555-555---555555-55---------------|
   xxx xxx xxx x   xxx x xxx   xxx xxx   xxxxxx xx


||---------------------------------------------------------------|
||-----------------------10--------------------------------------|
||---------------------------------------------------------------|
||-0---------------------8---------------------------------------|
||-0-------------------------------------------------------------|
||-0-0000-8p5-0-7v-0-0-0----0-5/8--------------------------------|
     xxxx     x    x   x    x


||---------------------------------------------------------------|
||---------------------------------------------------------------|
||---------------------------------------------------------------|
||-0-000-000-0---000-0-000---000---------------------------------|
||-0-000-000-0---000-0-000---000-555---5555555-------------------|
||-0-000-000-0---000-0-000---000-333---3333333-------------------|
     xxx xxx x   xxx x xxx   xxx xxx   xxxxxxx


||---------------------------------------------------------------|
||---------------------------------------------------------------|
||---------------------------------------------------------------|
||---------------------------------------------------------------|
||-555-555-555-5---777-7-777---777-777---777777-77---------------|
||-333-333-333-3---555-5-555---555-555---555555-55---------------|
   xxx xxx xxx x   xxx x xxx   xxx xxx   xxxxxx xx


||---------------------------------------------------------------|
||-----------------------10--------------------------------------|
||---------------------------------------------------------------|
||-0---------------------8---------------------------------------|
||-0-------------------------------------------------------------|
||-0-0000-8p5-0-7v-0-0-0----0-5/8--------------------------------|
     xxxx     x    x   x    x


||---------------------------------------------------------------|
||---------------------------------------------------------------|
||---------------------------------------------------------------|
||------------10-12--------------10-12-------------------10-12---|
||-12-8-10-12-------8-12-8-10-12-------10-7/8-12-8-10-12-------8-|
||---------------------------------------------------------------|


||---------------------------------------------------------------|
||---------------------------------------13/15-------------------|
||------------------10-12-14-14-10-12/14-------10-14-10-12/14----|
||------------10-12----------------------------------------------|
||-12-8-10-12----------------------------------------------------|
||---------------------------------------------------------------|



||---------------------------------------------------------------|
||-13/15---------------------13/15----------------13/15----18p17-|
||-------12-9/10-14-10-12/14-------10-14-10-12/14----------------|
||------------------------------------------------------15-------|
||---------------------------------------------------------------|
||---------------------------------------------------------------|



||---------------------------------------------------------------|
||---------------------------------------------------------------|
||---------------------------------------------------------------|
||------------10-12--------------10-12-------------------10-12---|
||-12-8-10-12-------8-12-8-10-12-------10-7/8-12-8-10-12-------8-|
||---------------------------------------------------------------|


||---------------------------------------------------------------|
||---------------------------------------13/15-------------------|
||------------------10-12-14-14-10-12/14-------10-14-10-12/14----|
||------------10-12----------------------------------------------|
||-12-8-10-12----------------------------------------------------|
||---------------------------------------------------------------|



||---------------------------------------------------------------|
||-13/15---------------------13/15----------------13/15----------|
||-------12-9/10-14-10-12/14-------10-14-10-12/14-------15-14~---|
||---------------------------------------------------------------|
||---------------------------------------------------------------|
||---------------------------------------------------------------|



||---------------------------------------------------------------|
||--------------------------10-----------------------------------|
||-5-5-5~------101010~-------------------------------------------|
||-3-3-3~------8-8-8~---000-8-------0-000-5~---------------------|
||-3-3-3~------8-8-8~---000---------0-000-3~---------------------|
||-3-3-3~------8-8-8~---000----5/8-00-000------------------------|
                        xxx        x  xxx


||---------------------------------------------------------------|
||--------------------------10-----------------------------------|
||-5-5-5~------101010~-------------------------------------------|
||-3-3-3~------8-8-8~---000-8-------0-000-0~---------------------|
||-3-3-3~------8-8-8~---000---------0-000-0~---------------------|
||-3-3-3~------8-8-8~---000----5/8-00-000-0~---------------------|
                        xxx        x  xxx


||-h6/10p0h5h6-t10p0h5h6-t10p0h5h6-t10p0h5h6-t12p0h6h8-t12p0h6h8-|
||---------------------------------------------------------------|
||---------------------------------------------------------------|
||---------------------------------------------------------------|
||---------------------------------------------------------------|
||---------------------------------------------------------------|



||-t13p0h6h8-t13p06h8h-t15p0h8h10-t15p0h8h10-t17p0h8h10----------|
||---------------------------------------------------------------|
||---------------------------------------------------------------|
||---------------------------------------------------------------|
||---------------------------------------------------------------|
||---------------------------------------------------------------|



||-17h18p17p15-17b~-17/-h6/10p0h5h6-t10p0h5h6-t10p0h5h6-t10p0h5h6|
||---------------------------------------------------------------|
||---------------------------------------------------------------|
||---------------------------------------------------------------|
||---------------------------------------------------------------|
||---------------------------------------------------------------|



||-t12p0h6h8-t12p0h6h8-t13p0h6h8-t13p06h8h-/15-17-20\------------|
||---------------------------------------------------------------|
||---------------------------------------------------------------|
||---------------------------------------------------------------|
||---------------------------------------------------------------|
||---------------------------------------------------------------|



||---------------------------------------------------------------|
||-----------------------10101010/-------------------------------|
||---------------------------------------------------------------|
||-0---------------------8-8-8-8/--------------------------------|   
||-0--------------------------------------------------7-8--------|
||-0-0000-8p5-0-7v-0-0-0-----------00000--8p5-0-7v-058-5-5-------|
     xxxx     x    x   x           xx xx      x


||---------------------------------------------------------------|
||-----------------------10101010/-------------------------------|
||------------------------------------------------------9999-----|
||-0---------------------8-8-8-8/-----------------------8888-----|
||-0----------------------------------------------------7777-----|
||-0-0000-8p5-0-7v-0-0-0-----------00000-8p5-0-7v-0-0-0----------|
     xxxx     x    x   x           xx xx     x    x   x


||---------------------------------------------------------------|
||-----------------10--------------------------------------------|
||---------------------------------------------------------9999--|
||-----------------8---------------------------------------8888--|
||-------------------------------5-------------------------7777--|
||--00000-00-8p5-0----00000-/8507--00000-00-8p5-0-7v-0-0-0-------|
    xxxx  xx     x    xxxx         xxxx  xx     x    x   x


||---------------------------------------------------------------|
||-----------------10--------------------------------------------|
||---------------------------------------------------------9999--|
||-----------------8---------------------------------------8888--|
||-------------------------------5-------------------------7777--|
||--00000-00-8p5-0----00000-/8507--00000-00-8p5-0-7v-0-0-0-------|
    xxxx  xx     x    xxxx         xxxx  xx     x    x   x


||---------------------------------------------------------------|
||-----------------10--------------------------------------------|
||---------------------------------------------------------9999--|
||-----------------8---------------------------------------8888--|
||-------------------------------5-------------------------7777--|
||--00000-00-8p5-0----00000-/8507--00000-00-8p5-0-7v-0-0-0-------|
    xxxx  xx     x    xxxx         xxxx  xx     x    x   x


||---------------------------------------------------------------|
||-----------------10--------------------------------------------|
||---------------------------------------------------------9999--|
||-----------------8---------------------------------------8888--|
||-------------------------------5-------------------------7777--|
||--00000-00-8p5-0----00000-/8507--00000-00-8p5-0-7v-0-0-0-------|
    xxxx  xx     x    xxxx         xxxx  xx     x    x   x


||---------------------------------------------------------------|
||---------------------------------------------------------------|
||---------------------------------------------------------------|
||-0-00000---0-0-00000-000-0---000-0-00000-------------0-0-00000-|
||-0-00000---0-0-00000-000-0---000-0-00000-little fill-0-0-00000-|
||-0-00000---0-0-00000-000-0---000-0-00000-------------0-0-00000-|
     xxxxx   x   xxxxx xxx x   xxx   xxxxx             x   xxxxx



||---------------------------------------------------------------|
||---------------------------------------------------------------|
||---------------------------------------------------------------|
||-00-0000-0000-0000-0-00000---0-0-00000-000-0---000-0-00000-----|
||-00-0000-0000-0000-0-00000---0-0-00000-000-0---000-0-00000-----|
||-00-0000-0000-0000-0-00000---0-0-00000-000-0---000-0-00000-----|
   xx xxxx xxxx xxxx   xxxxx   x   xxxxx xxx x   xxx   xxxxx



||---------------------------------------------------------------|
||---------------------------------------------------------------|
||---------------------------------------------------------------|
||-0-0-00000-00-0000-0000-0000-----------------------------------|
||-0-0-00000-00-0000-0000-0000-----------------------------------|
||-0-0-00000-00-0000-0000-0000-----------------------------------|
   x   xxxxx xx xxxx xxxx xxxx
Добавлено: 22.08.2013
Другие материалы по этой песне:

Страница создана 22.08.2013
http://primanota.ru/august-burns-red/sincerity-chords.htm
Привет, Гость.
Предлагаем пройти революционный курс по гитаре.
Подарок от PrimaNota.Ru, забирай!