PrimaNota.ru - самый крупный в мире бесплатный архив песенных текстов, аккордов, табулатур и нот


August Burns Red - Meridian - таба, бас-таба, видео

Регистрация Запомнить меня
Войти через:  Facebook Google Twitter Vk Yandex Mail.ru

August Burns Red - Meridian - таба, бас-таба, видео

Печатать
Просмотров: 454
this tab is for the intro solo apx 1 minute into the song, the ending is the only 
part im not 100% on

D---------------------------1010101010101010-------------------------------------|
A----------88888888----------------------------------888888-11-11-10101010101010-|
F--77777777---------77777777~~~~~~~~~~~~~~---77777777----------------------------|
C--------------------------------------------------------------------------------|
G--------------------------------------------------------------------------------|
C--------------------------------------------------------------------------------|

D----------------------------------1515151515151515----------------18181818-17171717-|
A-1515151515151515-1515151515151515----------------1515151515151515------------------|
F------------------------------------------------------------------------------------|
C------------------------------------------------------------------------------------|
G------------------------------------------------------------------------------------|
C------------------------------------------------------------------------------------|

D---------------------------------------------------------------------------------|
A-1515151515151515----------------------------------------------------------------|
F------------------1515151515151515-10h14p10h12-(4 times)-12h15p12h14-(4 times)---|
C------------------------------------------------------------------------------0~-|
G------------------------------------------------------------------------------0~-|
C------------------------------------------------------------------------------0~-|
Добавлено: 25.07.2012
Другие материалы по этой песне:

Страница создана 06.03.2012
http://primanota.ru/august-burns-red/meridian-chords.htm
Привет, Гость.
Предлагаем пройти революционный курс по гитаре.
Подарок от PrimaNota.Ru, забирай!