PrimaNota.ru - самый крупный в мире бесплатный архив песенных текстов, аккордов, табулатур и нот


August Burns Red - Flurries - таба, видео

Регистрация Запомнить меня
Войти через:  Facebook Google Twitter Vk Yandex Mail.ru

August Burns Red - Flurries - таба, видео

Печатать
Просмотров: 176
Уроки эстрадного вокала в Санкт-Петербурге
Drop C
h = hammer on
p = pull off
~ = slide
ah = artifficial harmonic
LR = let ring

Intro [2x]
D--------------------------------------------------------------------|
A-------------7---------------7----------------7----------------7----|
F--------------------------------------------------------------------|
C----0-0-0-0----0-0-0-0-0-0-0----0-0-0-0-0-0-0---0-0-0-0-0-0-0-------|
G--------------------------------------------------------------------|
C--------------------------------------------------------------------|

D------------------5---------------5---------------10-------------14-|
A--------------------------------------------------------------------|
F--------------------------------------------------------------------|
C----0-0-0-0-0-0-0---0-0-0-0-0-0-0---0-0-0-0-0-0-0---0-0-0-0-0-0-0---|
G--------------------------------------------------------------------|
C--------------------------------------------------------------------|





Outro [2x] (let the notes ring as much as you can)
D---------------------------2----------------------9----------------10----10----14--|
A--------7----7--------3-------3---------7--10--7----7--10--7----10----10----10-----|
F------7--7-9--9-----4---4---4---4--------------------------------------------------|
C----0------------------------------------------------------------------------------|
G-----------------------------------------------------------------------------------|
C-----------------------------------------------------------------------------------|





Cool Riff :D [2x]
D-----------------------------------------------------------------------------|
A-----------------------------------------------------------------------------|
F-----------------------7------------------------------------7----7h9p7--9~11-|
C-------------------7--------7---------------------------7--------------------|
G----10---9---7h9-----------------9h10p9-------9---7h9------------------------|
C-------0---0-----0---0----0---0---------0---0---0-----0---0---0--------------|

D------------------------------------------------------------|
A------------7-----------------7h8p7-------------------------|
F----4---4-----7---4----7h9p7--------9slidebackto7---7---7---|
C------------------------------------------------5---5---5---|
G------------------------------------------------5---5---5---|
C------------------------------------------------5---5---5---|





Breakdown [2x] 1, 1234, 12345... 123456... 12, 12-1....
D----------------------------------------------------------|
A----------------------------------------------------------|
F----------------------------------------------------------|
C----0----0-0-0-0----0-0-0-0-0----0-0-0-0-0-0----0-0---0-0-|
G----0----0-0-0-0----0-0-0-0-0----0-0-0-0-0-0----0-0---0-0-|
C----0----0-0-0-0----0-0-0-0-0----0-0-0-0-0-0----0-0---0-0-|

D----------------------------------------------------------|
A----------------------------------------------------------|
F----------------------------------------------------------|
C----0----0-0-0-0----0-0-0-0-0----0-0-0-0-0-0----0-0-0-0-0-|
G----0----0-0-0-0----0-0-0-0-0----0-0-0-0-0-0----0-0-0-0-0-|
C----0----0-0-0-0----0-0-0-0-0----0-0-0-0-0-0----0-0-0-0-0-|




Outro [2x]
D--------------5-------------------5---------|
A----------------7-7-7---------------7-7-7---|
F--------------------------------------------|
C----0-0-0-0-------------0-0-0-0-------------|
G--------------------------------------------|
C--------------------------------------------|

D--------------5-------------------5---------|
A----------------8-8-8---------------8-8-8---|
F--------------------------------------------|
C----9-9-9-9--------------9-9-9-9------------|
G--------------------------------------------|
C--------------------------------------------|

D--------------5-------------------5---------|
A----------------7-7-7---------------7-7-7---|
F--------------------------------------------|
C----0-0-0-0-------------0-0-0-0-------------|
G--------------------------------------------|
C--------------------------------------------|

D--------------5-------------------5---------|
A----------------7-7-7---------------7-7-7---|
F--------------------------------------------|
C----0-0-0-0-------------0-0-0-0-------------|
G--------------------------------------------|
C--------------------------------------------|




Solo                ah                 LR
D------------------------12~15--14--------------------15--17------21-22-|
A---------8------------------------15-------------19--------------------|
F-----------11------------------------14----14~19-----------------------|
C----7~12------12---12--------------------------------------------------|
G-----------------------------------------------------------------------|
C-----------------------------------------------------------------------|

I don't know the highest notes 'cause my guitar has 22 frets, but I believe it's 24(bend 
to 26, fall to 24, return to 22)

D----22--22--22--21--21--21--17--17--------------------------------|
A------------------------------------19--19--19--20--20--20--22-22-|
F------------------------------------------------------------------|
C------------------------------------------------------------------|
G------------------------------------------------------------------|
C------------------------------------------------------------------|

------------------------------------|
-20--20--20--19--19--19-------------|
-------------------------19--19-----|
---------------------------------12-|
------------------------------------|
------------------------------------|


D--------------------------------------------|
A------------------12h15---------------12h15-|
F-----------11h12---------------11h12--------|
C----12h14---------------12h14---------------|
G--------------------------------------------|
C--------------------------------------------|

D-----------17---22p17----21p17----19p17-----21p17-----22--|
A----15h19-------------19-------19-------19--------19------|
F----------------------------------------------------------|
C----------------------------------------------------------|
G----------------------------------------------------------|
C----------------------------------------------------------|


Then just repeat the other parts... +


Last Part [2x]
D-------------------------------------------------|
A----8-----------------------------19----20p19----|
F------11--------------11----14~19-------------19-|
C---------12-----9--12----------------------------|
G-------------------------------------------------|
C-------------------------------------------------|

Ending [4x]
D-------------|
A----20p19----|
F----------19-|
C-------------|
G-------------|
C-------------|

Hope you like it!
And please, check out my youtube channel: rauldeavila
My band: Use The Force, Luke!
Добавлено: 15.10.2013
Другие материалы по этой песне:

Страница создана 17.08.2013
http://primanota.ru/august-burns-red/flurries-chords.htm
Привет, Гость.
Предлагаем пройти революционный курс по гитаре.
Подарок от PrimaNota.Ru, забирай!