PrimaNota.ru - самый крупный в мире бесплатный архив песенных текстов, аккордов, табулатур и нот


August Burns Red - Existence - таба, видео

Регистрация Запомнить меня
Войти через:  Facebook Google Twitter Vk Yandex Mail.ru

August Burns Red - Existence - таба, видео

Печатать
Просмотров: 134
[Existence]
[Constellations]
[August Burns Red]

Watch the times, some things overlap.
See how many times each riff is played (No indication means 1)
Watch if each part has one guitar or two matching.
Symbols at bottum.

[Riff 1, Guitar 1 & 2] - [00:00] - [00:10]
- -----------------------------------------------------------------|
- -----------------------------------------------------------------|
- -7-------------7-----------------7-------------7-----------------|
- -----------7h8-----------------------------7h8-------------------|
- ---0-0-0-0-------0-0-0-0-000-0-0---0-0-0-0-------0-0-0-0-0-------|
- ---0-0-0-0-------0-0-0-0-000-0-0---0-0-0-0-------0-0-0-0-0-------|
PM   .......       ...............   .......       .........
-
- -----------------------------------------------------------------|
- -----------------------------------------------------------------|
- -----------------------------------------------------------------|
- ---------------------------------------------------------------3-|
- -0-0-0-0-0-----------------------0-0-0-0-0-------0-0-0-0-5p0h1---|
- -0-0-0-0-0-----------------------0-0-0-0-0-------0-0-0-0---------|
PM .......................................................


- ------------------------------------------------------------------------|
- ------------------------------------------------------------------------|
- -7-------------7-----------------7---------------10-9-7-----7-----------|
- -----------7h8-----------------------------7h8-----------10----10-8--7--|
- ---0-0-0-0-------0-0-0-0-000-0-0---0-0-0-0------------------------------|
- ---0-0-0-0-------0-0-0-0-000-0-0---0-0-0-0-----0------------------------|
PM   .......       ...............   .......     .
-
- ------------------------------------------------------------------------|
- -------------------------------------------------10-8-------------------|
- ------------------------------------------------------10-9--10-9--------|
- ------------------------------------------------------------------12-10-|
- -0-0-0-0-0-----------------------0-0-0-0-0------------------------------|
- -0-0-0-0-0-----------------------0-0-0-0-0------------------------------|
PM .........................................

----------------------------------------------------------------------------

[Riff 2] - [00:10] - [00:19]
- -------------------------------------------------------------------|
- -------------------------------------------------------------------|
- -7-------------7---------------7-7-------------7-7-7-7-7-10-7----7-|
- -----------7h8-------8---7h8---------8---7h8------------------10---|
- -------------------------------------------------------------------|
- ---0-0-0-0-------0-0---0-----0-----0---0-----0---------------------|
PM   .......       ...   .     .     .   .     .

- ----------------------------------------------------------------------|
- ----------------------------------------------------------------------|
- -7--------------7---------------7-7---------------10-9-7----7---------|
- ------------7h8-------8---7h8---------8---7h8------------10---10-8-7--|
- ----------------------------------------------------------------------|
- ---0-0-0-0--------0-0---0-----0-----0---0-----0-0---------------------|
PM   .......        ...   .     .     .   .     ...

- ----------------------|
- -10-8-----------------|
- ------10-9-10-9-------| harmony part played at end.
- ----------------12-10-|
- ----------------------|
- ----------------------|


----------------------------------------------------------------------------

[Riff 2] - [00:19] - [00:28]

[Riff 3] - [00:19] - [00:28]
- -------------------------------------------------------------|
- -------------------------------------------------------------|
- -10---------------10------------------10-10------------------|
- ------------10h12--------12---10h12-----------12---10h12-----|
- -------------------------------------------------------------|
- ----0-0-0-0----------0-0----0-------0-------0----0-------0-0-|
PM    .......          ...    .       .       .    .       ...

- -------------------------------------------------------------|
- -------------------------------------------------------------|
- -------------10--------------------------10------------------|
- -10-10-10-10----10-9-10-10---------10h12--------12---10h12---|
- -------------------------------------------------------------|
- ---------------------------0-0-0-0----------0-0----0-------0-|
PM                           .......          ...    .       .

- ---------------------------------------------|
- ------------------------10-8-----------------|
- -10-10-----------------------10-9-10-9-------|
- ---------12---10h12--------------------12-10-|
- ---------------------------------------------|
- -------0----0-------0-0----------------------|
PM       .    .       ...

----------------------------------------------------------------------------

[Riff 4, Guitar 1 & 2] - [00:28] - [00:43]-------------------------------| 3x
- -----------------------------------------------------------------------|
- -------------------------8---11p10-------------------------------------|
- ---------7-----9----10-------------10---------7------------------------|
- -----7------------------------------------7---------7---7---8---8-8-8--|
- ----------------------------------------------------3---3---5---5-5-5--|
- -0-0---0---0-0----0----0---0----------0-0---0---0-0-3---3---5---5-5-5--|
PM ...   .   ...    .    .   .          ...   .   ...
-
- ----------------------------------------------------------------------|
- ----------------------------------------------------------------------|
- -------------------------9---12p10------------------2---2---3---3-3-3-|
- ---------8-----10---12-------------12---------8-----3---3---5---5-5-5-|
- -----8------------------------------------8---------------------------|
- -0-0---0---0-0----0----0---0----------0-0---0---0-0-------------------|
PM ...   .   ...    .    .   .          ...   .   ...

[Riff 5, Guitar 1 & 2] - [00:43] - [00:46]
- ---------------------------12---15-13--------------------|
- ----------11-----13---15--------------15----------11-----|
- -----10--------------------------------------10----------|
- ---------------------------------------------------------|
- ---------------------------------------------------------|
- -0-0----0----0-0----0----0----0----------0-0----0----0-0-|
PM ...    .    ...    .    .    .          ...    .    ...
-
- ---------------------------15---18-17--------------------|
- ----------15-----17---18--------------18----------15-----|
- -----14--------------------------------------14----------|
- ---------------------------------------------------------|
- ---------------------------------------------------------|
- -0-0----0----0-0----0----0----0----------0-0----0----0-0-|
PM ...    .    ...    .    .    .          ...    .    ...

----------------------------------------------------------------------------

[Riff 6, Guitar 1 & 2] - [00:46] - [00:53]
- ----------------------------------------------------------------------|
- ----------------------------------------------------------------------|
- -----------------------------------------------------------------9/12-|
- -7---7---8---8-8-8-1212121215151511111111111111111111111111111111x-x--|
- -3---3---5---5-5-5-8-8-8-8-1212127-7-7-7-7-7-7-7-7-7-7-7-7-7-7-7-7/10-|
- -3---3---5---5-5-5-8-8-8-8-1212127-7-7-7-7-7-7-7-7-7-7-7-7-7-7-7------|
-
- ----------------------------------------------------------------------|
- ----------------------------------------------------------------------|
- -2---2---3---3-3-3-7-7-7-7-1010106-6-6-6-6-6-6-6-6-9-9-9-9-9-9-9-9-9--|
- -3---3---5---5-5-5-8-8-8-8-1212127-7-7-7-7-7-7-7-7-7-7-7-7-7-7-7-7-7--|
- ---------------------------------------------------7-7-7-7-7-7-7-7-7--|
- ----------------------------------------------------------------------|


- ------------------------------------------------|
- ------------------------------------------------|
- -12-12-12-12-12-12-12/15-15-15-15-15------------|
- -x--x--x--x--x--x--x--x--x--x--x--x--12\--------|
- -10-10-10-10-10-10-10/13-13-13-13-13-12\--------|
- -------------------------------------12\--------|
-
- ------------------------------------------------|
- ------------------------------------------------|
- -9--9--9--9--9--9--9--9--9--9--9--9-------------|
- -7--7--7--7--7--7--7--7--7--7--7--7--12\--------|
- -7--7--7--7--7--7--7--7--7--7--7--7--12\--------|
- -------------------------------------12\--------|

if my gp gets accepted it'll explain this part Muchh more clearly.. lol

----------------------------------------------------------------------------

[Riff 7] - [00:53] - [01:04]
- ------------------------------------------------------------------------|
- ---------------------(Let notes ring out)-------------------------------|
- ------------------------------------------------------------------------|
- ------------------------------------------------------------------------|
- -0000-0000---0000-0000-0000---0000-0000-0000-0000---0000-0000---0000----|
- -0000-0000---0000-0000-0000---0000-0000-0000-0000---0000-0000---0000----|
PM ...................................................................

- ----------|
- ----------|
- ----------|
- ----------|
- -00000000-|
- -00000000-|
PM ........

----------------------------------------------------------------------------

[Riff 8a] - [01:04] - [01:23]----------------------------------------------| 2x
- -------------------------------------------------------------------------|
- -------------------------------------------------------------------------|
- -------------------------------------------------------------------------|
- -------------------------------------------------------------------------|
- -8888-8888---8888-8883-3333---3333-3333-7777-7777---7777-7773---3333-----|
- -8888-8888---8888-8883-3333---3333-3333-7777-7777---7777-7773---3333-----|
PM ...................................................................

- ----------|
- ----------|
- ----------|
- ----------|
- -33333333-|
- -33333333-|
PM ........

[Riff 8b] - [01:04] - [01:23]----| 2x
- -------------------------------|
- -3-1-1-1-----------------------|
- -3-2-0-2-----------------------|
- -3-3-2-3-----------------------|
- -1-3-3-3-----------------------| strum for 2 bars each behind riff 8a
- -------------------------------|
PM .......

----------------------------------------------------------------------------

[Riff 8b] - [01:23] - [01:43] - 2x

[Riff 9] - [01:23] - [01:43]------------------------------------------------| 2x
- --------------------------------------------------------------------------|
- --------------------------------------------------------------------------|
- --------------------10p7-----------------------14p10----------------------|
- -0h5h7p0-12p8------------8----8p7----0h10h12p0-------------3-----8-5-7-7--|
- ---------------------------10-----10-------------------------5-3----------|
- --------------8-8-8----------------------------------000-0----------------|
PM              .....                                  ...........

- ---------------------------------------------------------------------|
- ---------------------------------------------------------------------|
- ------------------------10p7-----------------------14p10-------------|
- -0h10p7p0-12p8---------------8----8p7----0h10h12p0-------------3-----|
- -------------------------------10-----10-------------------------5-3-|
- ---------------10-10-10----------------------------------000-0-------|
PM               ........                                  ...........

- ---------|
- ---------|
- ---------|
- -8-5-7-7-|
- ---------|
- ---------|

----------------------------------------------------------------------------

[Riff 9] - [01:43] - [02:03] - 2x

[Riff 10] - [[01:43] - [02:03]-----------------------------------------------| 2x
- ---------------------------------------------------------------------------|
- -------------------10------------------------------------------------------|
- ----------10p7--------10-7---7----------------------------------7----------|
- -0h8h10p0------------------8---10-7-0h14h15p0-15p12-------7-------8-10-10--|
- ------------------------------------------------------------8-7------------|
- --------------8-8-8--------------------------------000-0-------------------|
PM              .....                                ............

- -----------------------------------------------------------------------|
- --------------------------10-------------------------------------------|
- -----------------------------10-7---7----------------------------------|
- -0h14p10p0-15p12------------------8---10-7-0h14h15p0-15p12-------7-----|
- -------------------------------------------------------------------8-7-|
- -----------------10-10-10----------------------------------000-0-------|
PM                 ........                                  ...........

- -----------|
- -----------|
- -7---------|
- ---8-10-10-|
- -----------|
- -----------|

----------------------------------------------------------------------------

[Riff 1, Guitar 1 & 2] - [02:03] - [02:12]

----------------------------------------------------------------------------

[Riff 11] - [02:12] - [02:32]------------------------------------------------| 2x
- ---------------------------------------------------------------------------|
- ---------------------------------------------------------------------------|
- -7---------------10---7-----------------------------------------7----7-----|
- -------8---7h8-------------8-----7h8--5p0---5---5h7h8/10---10--------------|
- ---------------------------------------------------------------------------|
- ---0-0---0-----0----0----0----0-----------0---0-----------0---0----0----0--|
PM   ...   .     .    .    .    .           .   .           .   .    .    .
-
- --------------------------------------------------------------------------|
- -----------------10-------------------------------------------------------|
- -10-------------------10--------------------------------9---9---10---10---|
- ------12--10h12------------12---10h12-8p0---8---8h10h12-------------------|
- --------------------------------------------------------------------------|
- ---0-0---0-----0----0----0----0-----------0---0-----------0---0----0----0-|
PM   ...   .     .    .    .    .           .   .           .   .    .    .


- --------------------------------------------------------------------------|
- --------------------------------------------------------------------------|
- -7---------------10---7----------------------------------------9h10-10h12-|
- -------8---7h8-------------8-----7h8--5p0----------------7----------------|
- ---------------------------------------------7h8-----7h8---8--------------|
- ---0-0---0-----0----0----0----0-----------0-------0-----------0----0------|
PM   ...   .     .    .    .    .           .       .           .    .
-
- --------------------------------------------------------------------------|
- -----------------10--------------------------------------------8h10-10h11-|
- -10-------------------10---------------------------------10---------------|
- ------12--10h12------------12---10h12-8p0-----------10h12--12-------------|
- --------------------------------------------10h12-------------------------|
- ---0-0---0-----0----0----0----0-----------0-------0-----------0----0------|
PM   ...   .     .    .    .    .           .       .           .    .

----------------------------------------------------------------------------

[Riff 12, Guitar 1 & 2] - [02:32] - [02:43]
- -----------------------------------------------------------------|
- -----------------------------------------------------------------|
- -----------------------------------------------------------------|
- -7-7-7-7-7-7-7-3-3-3-3-3-3-3-3-3---------------------------------|
- -5-5-5-5-5-5-5-1-1-1-1-1-1-1-1-1-3-3-3-3-3-3-3-5-5-5-5-5-5-5-5-5-|
- ---------------------------------3-3-3-3-3-3-3-5-5-5-5-5-5-5-5-5-|
PM ...............................................................
-
- -----------------------------------------------------------------|
- -----------------------------------------------------------------|
- -----------------------------------------------------------------|
- -3-3-3-3-3-3-3-3-5-5-5-5-5-5-5-5-3-3-3-3-3-3-3-3-5-5-5-5-5-5-5-5-|
- -----------------------------------------------------------------|
- -----------------------------------------------------------------|
PM .......................................................


- -----------------------------------------------------------------|
- -----------------------------------------------------------------|
- -----------------------------------------------------------------|
- -7-7-7-7-7-7-7-3-3-3-3-3-3-3-3-3-5-5-5-5-5-5-5-7-7-7-7-7-7-7-7-7-|
- -5-5-5-5-5-5-5-3-3-3-3-3-3-3-3-3-5-5-5-5-5-5-5-7-7-7-7-7-7-7-7-7-|
- ---------------3-3-3-3-3-3-3-3-3-5-5-5-5-5-5-5-7-7-7-7-7-7-7-7-7-|
-
- -----------------------------------------------------------------|
- ---------------6-6-6-6-6-6-6-6-6-8~--8~--8---10~---10~-10~-------|
- -----------------------------------------------------------------|
- -3-3-3-3-3-3-3---------------------------------------------------|
- -----------------------------------------------------------------|
- -----------------------------------------------------------------|

----------------------------------------------------------------------------

[Riff 14a] - [02:43] - [02:52]
- ------------------------------------------------10--10-13/15-13-15/17----|
- ------------------------------------10h13p10--13--13---------------------|
- -----------10h12p10-12brb-10----------------12---------------------------|
- ------10h12-----------------12-------------------------------------------|
- -10h12-------------------------------------------------------------------|
- -------------------------------------------------------------------------|

- -22p17p15h17-22p17p15h17-22p17p15h17-22p17p15h17-22p17p15h17-22p17p15h17-|
- -------------------------------------------------------------------------|
- -------------------------------------------------------------------------|
- -------------------------------------------------------------------------|
- -------------------------------------------------------------------------|
- -------------------------------------------------------------------------|

- -22p17p15h17-22p17p15h17----------------------15-17-15-------------------|
- -------------------------18-15----------15-18----------18-15\------------|
- -------------------------------17-14-17------------------------9--10~----|
- ---------------------------------------------------------------10-12~----|
- -------------------------------------------------------------------------|
- -----------------------------(Two different guitars ___________^^^^^ )---|

[Riff 14b] - [02:43] - [02:52]
- -----------------|
- -----------------|
- -----------------|
- -7-3-3-5-7-3-5-7-| strum for 1 bar each behind riff 14a
- -5-1-3-5-5-3-5-7-|
- -----3-5---3-5-7-|

----------------------------------------------------------------------------

[Riff 15] - [02:52] - [03:11]----| 8x
- -------------------------------|
- -------------------------------|
- -------------------------------|
- -------------------------------|
- -00000-0-0-0-0-00000-0-0-0-----|
- -00000-0-0-0-0-00000-0-0-0-----|
PM .........................

----------------------------------------------------------------------------

[Riff 15] - [03:11] - [03:28] - 6x

- -------------------------------------|
- -------------------------------------|
- -------------------------------------|  play riff 15 6x then end with this.
- -------------------------------------|
- -00000-0-0-0-0-00000-0-0-0-0-0-0-0-0-|
- -00000-0-0-0-0-00000-0-0-0-0-0-0-0-0-|
PM ...................................

[Riff 16] - [03:11] - [03:28]-----------------------| 2x
- -------------------------5-5---------5-5----------|
- -6-6---------6-6-------------6-6---------6-6------|
- -----7-7---------7-7-------------7-7---------7-7--|
- ---------8-8---------8-8--------------------------|
- --------------------------------------------------|
- --------------------------------------------------|

- -------------------------------------------------|
- -5-5---------5-5---------6-6---------6-6---------|
- -----5-5---------5-5---------7-7---------7-7-----|
- ---------5-5---------5-5---------7-7---------7-7-|
- -------------------------------------------------|
- -------------------------------------------------|

----------------------------------------------------------------------------

[Riff 16] - [03:28] - [03:45] - 2x

[Riff 17] - [03:28] - [03:45]---------------------------------------| 2x
- ---------------------------------8-8-------------8-8--------------|
- -10-10-----------10-10---------------10-10-----------10-10--------|
- -------10-10-7-7-------10-10-7-7-----------10-10-----------10-10--|
- ------------------------------------------------------------------|
- ------------------------------------------------------------------|
- ------------------------------------------------------------------|

- -----------------------------------------------------------------|
- -8-8-----------8-8-----------10-10-------------10-10-------------|
- -----9-9-----------9-9-------------10-10-------------10-10-------|
- ---------10-10---------10-10-------------10-10-------------10-10-|
- -----------------------------------------------------------------|
- -----------------------------------------------------------------|

[Riff 18] - [03:28] - [03:45]-----------------| 2x
- --------------------------------------------|
- --------------------------------------------|
- --------------------------------------------|
- -8-7-5-5- play two bars each behind riff 17-|
- -8-5-3-5------------------------------------|
- -8-----5------------------------------------|

----------------------------------------------------------------------------

[Riff 19, Guitar 1 & 2] - [03:45] - [03:54]
- -------------|
- -------------|
- -------------|
- -0~----------|
- -0~----------|
- -0~----------|
-
- -------------|
- -6-6---------|
- -----7-7-----|
- ---------7-7-| repeat until end.
- -------------|
- -------------|
PM ...........

----------------------------------------------------------------------------

[Symbols]
h     Hammer On
p     Pull Off
/     Slide Up
\     Slide Down
PM... Palm Mute notes with (...) under them
~     Let Ring
x     Dead Note
Добавлено: 25.03.2012
Другие материалы по этой песне:

Страница создана 25.03.2012
http://primanota.ru/august-burns-red/existence-chords.htm
Привет, Гость.
Предлагаем пройти революционный курс по гитаре.
Подарок от PrimaNota.Ru, забирай!