PrimaNota.ru - самый крупный в мире бесплатный архив песенных текстов, аккордов, табулатур и нот


Augury - Skyless - таба, видео

Регистрация Запомнить меня
Войти через:  Facebook Google Twitter Vk Yandex Mail.ru

Augury - Skyless - таба, видео

Печатать
Просмотров: 134
-----------------------------------------------------------------------------
                             Skyless - Augury
-----------------------------------------------------------------------------
Tabbed by: Life is Brutal
Email: DillonTOwnz@hotmail.com

Tuning: Drop A, AEADF#B

I Tabbed this in D standard, so if you want to play it in its proper tuning,
add 3 Frets to every note. Also I am unsure of the very first note.

d|-10~-7-9-10-12-14-15-
A|---------------------
F|---------------------
C|---------------------
G|---------------------
D|---------------------

D|-14-15-17-15-14-15-14~--12-10-9-10-12-10-9-10-|
A|----------------------------------------------|
F|----------------------------------------------|
C|----------------------------------------------|
G|----------------------------------------------|
D|----------------------------------------------|


d|-8~-13~-19~-19h20\17h19\15h17\14h15p14~-|
A|----------------------------------------|
F|----------------------------------------|
C|----------------------------------------|
G|----------------------------------------|
D|----------------------------------------|

d|-14h15p14-14h15p14----------------|
A|-------------------15-------------|
F|----------------------16----------|
C|-------------------------16-------|
G|----------------------------17p14-|
D|----------------------------------|

d|-----------------------------------------17h19p17-17h19p17-----|
A|--------------19-17-15-19~--19-17-15-20~-------------------18~-|
F|-------16-19~--------------------------------------------------|
C|---------------------------------------------------------------|
G|-14-17---------------------------------------------------------|
D|---------------------------------------------------------------|

d|-------------------------------Trill--|
A|-20~-18h20p18\16h18p16\15h16p15-15&16-|
F|--------------------------------------|
C|--------------------------------------|
G|--------------------------------------|
D|--------------------------------------|

I am still working on it, so ill be back with the rest of the intro soon.
Добавлено: 24.04.2012
Другие материалы по этой песне:
  • Аккорды и текст

Страница создана 24.04.2012
http://primanota.ru/augury/skyless-chords.htm
Привет, Гость.
Предлагаем пройти революционный курс по гитаре.
Подарок от PrimaNota.Ru, забирай!