PrimaNota.ru - самый крупный в мире бесплатный архив песенных текстов, аккордов, табулатур и нот


Augie March - The Slant - таба, видео

Регистрация Запомнить меня
Войти через:  Facebook Google Twitter Vk Yandex Mail.ru

Augie March - The Slant - таба, видео

Печатать
Просмотров: 111
Augie March - The Slant

Capo 4
Standard tuning

Intro
e|--------------------------------------------------------------|
B|---0---0--------0---------------------------------------------|
G|---0---0--------0-[repeat x3]---0---0---0---0---0---0---0---0-|
D|-9---7--------------------------0---0---0---0---0---0---0---0-|
A|---------9----7---------------3---3---2---2---2---2---2---2---|
E|-----------10-------------------------------------------------|

   C       Em
e|---0---------------------------------------------------------------------|
B|---1---1---0---0---------------------------------------------------------|
G|-------0---0---0-[repeat x3]---0---0---0---0---0---0---0---0---0---0---0-|
D|-------------------------------0---0---0---0---0---0---0---0---0---0---0-|
A|-3---3-------2-----------------------------------------------------------|
E|---------0-------------------2---3---5---7---7---7---7---8---8---8---8---|

Repeat all twice

Verse
e|--------------------------------------------------------------|
B|---0---0---0---0----------------------------------------------|
G|---0---0---0---0-[repeat x3]----0---0---0---0---0---0---0---0-|
D|-9---7--------------------------0---0---0---0---0---0---0---0-|
A|---------9---7----------------3---3---2---2---2---2---2---2---|
E|--------------------------------------------------------------|

   C       Em
e|-------------------------------------------------------------------------|
B|---1---1---0---0---------------------------------------------------------|
G|---0---0---0---0-[repeat x3]---0---0---0---0---0---0---0---0---0---0---0-|
D|-------------------------------0---0---0---0---0---0---0---0---0---0---0-|
A|-3---3-------2-----------------------------------------------------------|
E|---------0-------------------2---3---5---7---7---7---7---8---8---8---8---|

Repeat as necessary. In between verses, intro part is played.

2nd guitar in between verses
e|-------0-----------------------------------------------|
B|---------3-1-0---0-------------------------------------|
G|-----0---------0---[repeat x3]-------------------------|
D|-2h4---------------------------2/4-4/5-5/7-7/9----9/10-|
A|-------------------------------------------------------|
E|-------------------------------------------------------|

Song ends on an Em.

KEY: h = hammer-on
     / = slide

LYRICS:

Pity the boy in front of me
He was only 16,
Lifted up my axe then down,
Split his head like a cord of wood.

Not for me the huon pine,
Not for me the ankle iron,
A'resting in the rope'll do me fine.

So they sent me down to Bellerive,
Strung me up to my relief,
I was just a petty thief
Of no account, no import.

Send my love to my sister
In the Female Factory,
Remind her of the day when we drank wine.

May a slant of winter light
Break upon my stone before the night
Ushers in the chill,
I have no sight, I have no sight.

But did they pave the streets of Hobart town?
Lop the old wood forests down?
For the press of King and Crown,
For honey? Milk and honey?

My arse.
Добавлено: 28.06.2012
Другие материалы по этой песне:
  • Аккорды и текст

Страница создана 28.06.2012
http://primanota.ru/augie-march/the-slant-chords.htm
Привет, Гость.
Предлагаем пройти революционный курс по гитаре.
Подарок от PrimaNota.Ru, забирай!