PrimaNota.ru - самый крупный в мире бесплатный архив песенных текстов, аккордов, табулатур и нот


Augie March - The Good Gardener (On How He Fell) - текст песни, таба, видео

Регистрация Запомнить меня
Войти через:  Facebook Google Twitter Vk Yandex Mail.ru

Augie March - The Good Gardener (On How He Fell) - текст песни, таба, видео

Печатать
Просмотров: 37
The Good Gardener (On How He Fell)

By Augie March

Tabbed by Jucko

Tuning: EADABe

Timing: 4/4

Intro

F#add#9
------------------------------------------------------------------------------------------------|
---0-----0-----0-----0-----0-----0-----0-----0-----0-----0-----0-----0-----0-----0-----0-----0--|
------------0-----------------------0-----------------------0-----------------------0-----------|
------8-----------8-----------8-----------8-----------8-----------8-----------8-----------8-----|
9-----------------------9-----------------------9-----------------------9-----------------------|
------------------------------------------------------------------------------------------------|

Verse 1

Eadd4
------------------------------------------------------------------------------------------------|
---0-----0-----0-----0-----0-----0-----0-----0-----0-----0-----0-----0-----0-----0-----0-----0--|
------------0-----------------------0-----------------------0-----------------------0-----------|
------6-----------6-----------6-----------6-----------6-----------6-----------6-----------6-----|
7-----------------------7-----------------------7-----------------------7-----------------------|
------------------------------------------------------------------------------------------------|
Here  sits a once good  gardener,               pale  as  the  shadow  of  a  doubt

A2addb5
------------------------------------------------------------------------------------------------|
---0-----0-----0-----0-----0-----0-----0-----0-----0-----0-----0-----0-----0-----0-----0-----0--|
------------6-----------------------6-----------------------6-----------------------6-----------|
------7-----------7-----------7-----------7-----------7-----------7-----------7-----------7-----|
0-----------------------0-----------------------0-----------------------0-----------------------|
------------------------------------------------------------------------------------------------|
Once a happy dweller of a garden good,          once a happy sinner     once  cast   out

Link

C#m7        B5          B/D#
------------------------------------|
---0-----0-----0-----0-----0-----0--|
------------------------------------|
------2-----------1-----------------|
4-----------2-----------6-----9-----|
------------------------------------|
                             to the

Verse 2

Eadd4
------------------------------------------------------------------------------------------------|
---0-----0-----0-----0-----0-----0-----0-----0-----0-----0-----0-----0-----0-----0-----0-----0--|
------------0-----------------------0-----------------------0-----------------------0-----------|
------6-----------6-----------6-----------6-----------6-----------6-----------6-----------6-----|
7-----------------------7-----------------------7-----------------------7-----------------------|
------------------------------------------------------------------------------------------------|
Sea where the crossy-eyed maids murmur low, "do you see, do you see where the doubts cross his shadow?"

A2addb5
------------------------------------------------------------------------------------------------|
---0-----0-----0-----0-----0-----0-----0-----0-----0-----0-----0-----0-----0-----0-----0-----0--|
------------6-----------------------6-----------------------6-----------------------6-----------|
------7-----------7-----------7-----------7-----------7-----------7-----------7-----------7-----|
0-----------------------0-----------------------0-----------------------0-----------------------|
------------------------------------------------------------------------------------------------|
Drowned and amoral, I pollinate the coral & reek of the deep where I've tended the water weed

Chorus

C#m7        B           B/D#        E          C#m7        B           B/D#        E
------------------------------------------------------------------------------------------------|
---0-----0-----0-----0-----0-----0-----0-----0-----0-----0-----0-----0-----0-----0-----0-----0--|
------------------------------------------------------------------------------------0-----------|
------2-----------1-----------------------6-----------2-----------1-----------6-----------6-----|
4-----------2-----------6-----9-----7-----------4-----------2-----------7-----------------------|
------------------------------------------------------------------------------------------------|
I was you're your good gardener,           sing  to  bring in  the spring, I know where your

C#m7        B5                D#b5add6          C#m7        B          Eadd4
------------------------------------------------------------------------------------------------|
---0-----0-----0-----0-----0-----0-----0-----0-----0-----0-----0-----0-----0-----0-----0-----0--|
------------------------------------------------------------------------------------0-----------|
------2-----------4-----------------------------------2-----------1-----------6-----------6-----|
4-----------2----------2------6-----0-----6-----4-----------2-----------7-----------------------|
------------------------------------------------------------------------------------------------|
Good grass grows, I what your boyfriend knows,  I was your good gardener

Interlude (with trumpet solo)

Eadd4
------------------------------------------------------------------------------------------------|
---0-----0-----0-----0-----0-----0-----0-----0-----0-----0-----0-----0-----0-----0-----0-----0--|
------------0-----------------------0-----------------------0-----------------------0-----------|
------6-----------6-----------6-----------6-----------6-----------6-----------6-----------6-----|
7-----------------------7-----------------------7-----------------------7-----------------------|
------------------------------------------------------------------------------------------------|
                                                                       E4maj7
------------------------------------------------------------------------------------------------|
---0-----0-----0-----0-----0-----0-----0-----0-----0-----0-----0-----0-----2-----2-----2-----2--|
------------0-----------------------0-----------------------0-----------------------2-----2-----|
------6-----------6-----------6-----------6-----------6-----------6-----------------------------|
7-----------------------7-----------------------7-----------------------0-----------0-----------|
------------------------------------------------------------------------------0-----------0-----|
                      Eadd4
----------------------------------------------------------------------|
---2----2-----2-----0-----0-----0-----0-----0-----0-----0-----0-----0-|
-----------2-----2-----------------0-----------------------0----------|
-----------------------------6-----------6-----------6-----------6----|
0----------0-----------7-----------------------7----------------------|
-----0-----------0----------------------------------------------------|
                                                                Saw the

Verse 4

Eadd4
------------------------------------------------------------------------------------------------|
---0-----0-----0-----0-----0-----0-----0-----0-----0-----0-----0-----0-----0-----0-----0-----0--|
------------0-----------------------0-----------------------0-----------------------0-----------|
------6-----------6-----------6-----------6-----------6-----------6-----------6-----------6-----|
7-----------------------7-----------------------7-----------------------7-----------------------|
------------------------------------------------------------------------------------------------|
Twilight car waxers, corpulent dog walkers, clean canny couples on the sunset strip from a

A2addb5
------------------------------------------------------------------------------------------------|
---0-----0-----0-----0-----0-----0-----0-----0-----0-----0-----0-----0-----0-----0-----0-----0--|
------------6-----------------------6-----------------------6-----------------------6-----------|
------7-----------7-----------7-----------7-----------7-----------7-----------7-----------7-----|
0-----------------------0-----------------------0-----------------------0-----------------------|
------------------------------------------------------------------------------------------------|
Tower forty miles to the east of Augusta saw plague on the Indian coming in the wind-ship

Eadd4
------------------------------------------------------------------------------------------------|
---0-----0-----0-----0-----0-----0-----0-----0-----0-----0-----0-----0-----0-----0-----0-----0--|
------------0-----------------------0-----------------------0-----------------------0-----------|
------6-----------6-----------6-----------6-----------6-----------6-----------6-----------6-----|
7-----------------------7-----------------------7-----------------------7-----------------------|
------------------------------------------------------------------------------------------------|
You were in the garden when the wind swept up and took the foul words from your mouth now you

A2addb5
------------------------------------------------------------------------------------------------|
---0-----0-----0-----0-----0-----0-----0-----0-----0-----0-----0-----0-----0-----0-----0-----0--|
------------6-----------------------6-----------------------6-----------------------6-----------|
------7-----------7-----------7-----------7-----------7-----------7-----------7-----------7-----|
0-----------------------0-----------------------0-----------------------0-----------------------|
------------------------------------------------------------------------------------------------|
What your sarcasm really really means, it's the tearing with your teeth of the flesh from your

Chorus

C#m7        B           B/D#       E            C#m7        B           B/D#       E
------------------------------------------------------------------------------------------------|
---0-----0-----0-----0-----0-----0-----0-----0-----0-----0-----0-----0-----0-----0-----0-----0--|
------------------------------------------------------------------------------------------------|
------2-----------1-----------------------6-----------2-----------1-----------------------6-----|
4-----------2-----------6-----9-----7-----------4-----------2-----------6-----9-----7-----------|
------------------------------------------------------------------------------------------------|
Brother kill the shrub to fertilise the flower,did I hear you say that the form doesn't matter

C#m7        B5                D#b5add6          C#m7        B
-----------------------------------------------------------------------|
---0-----0-----0-----0-----0-----0-----0-----0-----0-----0-----0-----0-|
-----------------------------------------------------------------------|
------2-----------4-----------------------------------2-----------1----|
4-----------2-----------2-----6-----0-----6-----4-----------2----------|
-----------------------------------------------------------------------|
Form into matter and matter is forever   but only in your good garden

Link

Dm                                               Dmaj7
----------------------------------------------------------------------------------------------|
---0--------0--------0--------0---------0-----------0--------0--------0--------0--------0-----|
------6--------6--------6--------6---------6-----------4--------4--------4--------4--------4--|
7--------7--------7--------7----------7-------7--6--------6--------6--------6--------6--------|
----------------------------------------------------------------------------------------------|
----------------------------------------------------------------------------------------------|

   Dm                                    Eadd4
-------------------------------------------------------------------|
------0--------0--------0--------0-----------0----0-----0-----0----|
---------6--------6--------6--------6----------------0-------------|
6--7--------7--------7--------7--------7-------6-----------6-------|
------------------------------------------7----------------------7-|
-------------------------------------------------------------------|

Verse 5

Eaad4
Black rock bound in the Brighton bowl where the
Seas of desolation roll, where you're
A2addb5
Borne and borne and borne in again to the
Pebble-feather shore of forgotten friends, think how you
Eaad4
Can't see the science without seeing first the self, but then
Nobody thinks of growing somebody else, how the
A2addb5
Sun, hungry sun, holds the withered withered world, so
Why shouldn't I kiss the beautiful girl?

Chorus

C#m7        B           B/D#        E          C#m7        B           B/D#        E
------------------------------------------------------------------------------------------------|
---0-----0-----0-----0-----0-----0-----0-----0-----0-----0-----0-----0-----0-----0-----0-----0--|
------------------------------------------------------------------------------------0-----------|
------2-----------1-----------------------6-----------2-----------1-----------6-----------6-----|
4-----------2-----------6-----9-----7-----------4-----------2-----------7-----------------------|
------------------------------------------------------------------------------------------------|
I     was    her   good   gardener              sing of the Summer sham

C#m7        B5                D#b5add6          C#m7        B          Eadd4
------------------------------------------------------------------------------------------------|
---0-----0-----0-----0-----0-----0-----0-----0-----0-----0-----0-----0-----0-----0-----0-----0--|
------------------------------------------------------------------------------------0-----------|
------2-----------1-----------------------6-----------2-----------1-----------6-----------6-----|
4-----------2-----------6-----9-----7-----------4-----------2-----------7-----------------------|
------------------------------------------------------------------------------------------------|
O see them grow tall, see them in their rot, see them go to seed in the cemetery plot

C#m7        B           B/D#        E          C#m7        B           B/D#        E
------------------------------------------------------------------------------------------------|
---0-----0-----0-----0-----0-----0-----0-----0-----0-----0-----0-----0-----0-----0-----0-----0--|
------------------------------------------------------------------------------------0-----------|
------2-----------1-----------------------6-----------2-----------1-----------6-----------6-----|
4-----------2-----------6-----9-----7-----------4-----------2-----------7-----------------------|
------------------------------------------------------------------------------------------------|
O    I   was   your   good   gardener           sing to bring home the spring

C#m7        B5                D#b5add6          C#m7        B          Eadd4
------------------------------------------------------------------------------------------------|
---0-----0-----0-----0-----0-----0-----0-----0-----0-----0-----0-----0-----0-----0-----0-----0--|
------------------------------------------------------------------------------------0-----------|
------2-----------4-----------------------------------2-----------1-----------6-----------6-----|
4-----------2----------2------6-----0-----6-----4-----------2-----------7-----------------------|
------------------------------------------------------------------------------------------------|
O  ice  of  Winter  would  crackle  and  splinter with my,     love in everything


C#m7        B           B/D#        E          C#m7        B           B/D#        E
------------------------------------------------------------------------------------------------|
---0-----0-----0-----0-----0-----0-----0-----0-----0-----0-----0-----0-----0-----0-----0-----0--|
------------------------------------------------------------------------------------0-----------|
------2-----------4-----------------------------------2-----------1-----------6-----------6-----|
4-----------2----------2------6-----0-----6-----4-----------2-----------7-----------------------|
------------------------------------------------------------------------------------------------|
Yeah ice of winter would crackle and splinter with my,       love in everything

C#m7        B5
------------------------------------------------------------------------------------------------|
---0-----0-----0-----0--7--7--7--7--7--7--7--7-----0-----0-----0-----0-----0-----0-----0-----0--|
------------------------6--6--6--6--6--6--6--6--------------------------------------0-----------|
------2-----------1-----7--7--7--7--7--7--7--7--------2-----------1-----------6-----------6-----|
4-----------2-----------0--0--0--0--0--0--0--0--4-----------2-----------7-----------------------|
------------------------------------------------------------------------------------------------|
O I  was  your  good  gardener...

Eadd4
--------------------------------------------------|
---0-----0-----0-----0-----0-----0-----0-----0----|
------------0-------------------------------------|
------6-----------6-----------6-----------6-------|
7-----------------------7-----------7-----------7-|
--------------------------------------------------|

Outro

------------------------------------------------------------------------------------------------|
---0-----0-----0-----0-----0-----0-----0-----0-----0-----0-----0-----0-----0-----0-----0-----0--|
------------------------------------0-----------------------------------------------0-----------|
------2-----------1-----------6-----------6-----------2-----------1-----------6-----------6-----|
4-----------2-----------7-----------------------4-----------2-----------7-----------------------|
------------------------------------------------------------------------------------------------|
The sea is stark and lovely,            and it  scares me to the point of rapture

A2addb5
------------------------------------------------------------------------------------------------|
---0-----0-----0-----0-----0-----0-----0-----0-----0-----0-----0-----0-----0-----0-----0-----0--|
------------------------------------------------------------------------------------0-----------|
------2-----------1-----------------------6-----------2-----------1-----------6-----------6-----|
4-----------2-----------6-----9-----7-----------4-----------2-----------7-----------------------|
------------------------------------------------------------------------------------------------|
I was your good gardener,                    of some               good          stature

------------------------------------------------------------------------------------------------|
---0-----0-----0-----0-----0-----0-----0-----0-----0-----0-----0-----0-----0-----0-----0-----0--|
------------------------------------0-----------------------------------------------0-----------|
------2-----------1-----------6-----------6-----------2-----------1-----------6-----------6-----|
4-----------2-----------7-----------------------4-----------2-----------7-----------------------|
------------------------------------------------------------------------------------------------|
The sea is stark and lovely,            and it  scares me to the point of rapture

A2addb5
------------------------------------------------------------------------------------------------|
---0-----0-----0-----0-----0-----0-----0-----0-----0-----0-----0-----0-----0-----0-----0-----0--|
------------------------------------------------------------0-----------------------0-----------|
------2-----------1-----------------------6-----------2-----------2-----------1-----------1-----|
4-----------2-----------6-----9-----7-----------4-----------------------2-----------------------|
------------------------------------------------------------------------------------------------|
I  was    your  good  gardener,          now    I          can    barely                  look

------------------------------------------------------------------------------------------------|
---0-----0-----0-----0-----0-----0-----0-----0-----0-----0-----0-----0-----0-----0-----0-----0--|
------------0-----------------------------------------------0-----------------------------------|
------6-----------6-----------6-----------6-----------6-----------6-----------6-----------6-----|
7-----------------------7-----------7-----------7-----------------------7-----------7-----------|
------------------------------------------------------------------------------------------------|
at ya

--------------------------------------------------------------------------|
---0-----0-----0-----0-----0-----0-----0-----0-----0-----0-----0-----0----|
------------0-----------------------------------------------0-------------|
------2-----------2-----------2-----------2-----------6-----------6-------|
4-----------------------4-----------4-----------7-----------------------7-|
--------------------------------------------------------------------------|
Добавлено: 27.05.2016
Другие материалы по этой песне:
  • Аккорды и текст

Страница создана 31.07.2012
http://primanota.ru/augie-march/the-good-gardener-on-how-he-fell-chords.htm
Привет, Гость.
Предлагаем пройти революционный курс по гитаре.
Подарок от PrimaNota.Ru, забирай!