PrimaNota.ru - самый крупный в мире бесплатный архив песенных текстов, аккордов, табулатур и нот


Augie March - Here Comes The Night - текст песни, таба, видео

Регистрация Запомнить меня
Войти через:  Facebook Google Twitter Vk Yandex Mail.ru

Augie March - Here Comes The Night - текст песни, таба, видео

Печатать
Просмотров: 60
Here Comes The Night - Augie March

From Sunset Studies (2000)

Tabbed by: Juck

Tuning: EADGBe

Timing: 6/8

Intro
  
|-------------------------------------------------|
|---1-----1-----1-----1-----0-----0-----0-----0---|
|-----0-----0-----0-----0-----0-----0-----0-----0-|
|-------0-----2-----3-----5-----3-----2-----0-----|
|-3-----------------------------------------------|
|-------------------------------------------------|
 
|-------------------------------------------------|
|--1-----3-------1-----1-----1-----1-----1-----1--|
|----2-----4-------2-----2-----0-----0-----0-----0|
|-3-----5------3-----0-----3-----2-----0-----2----|
|-------------------------------------------------|
|-------------------------------------------------|

|-------------------------------------------------|
|---1-----1-----1-----1-----0-----0-----0-----0---|
|-----0-----0-----0-----0-----0-----0-----0-----0-|
|-------0-----2-----3-----5-----7-----9-----10----|
|-3-----------------------------------------------|
|-------------------------------------------------|

|-------------------------------------------------|
|---1-----3-----1-----1-----1-----1-----1-----1---|
|-----2-----4-----2-----2-----0-----0-----0-----0-|
|-3-----5-----3-----0-----3-----2-----0-----2-----|
|-------------------------------------------------|
|-------------------------------------------------|

C      Am        Em7
  Here comes the night 
C      Am     Em       F  G
  Roll on you careless evening,
C      Am  Em    F  G
  When we unite
C       Am        
  Not a force concurs,
    Em       F
Not hell nor heaven,
G         Am           C
So let it come, let it rain,
       F                    G
Let it burn through you and me again
       Am            C
In the slums without name,
       F          G
And it isn't only poverty to.. 

|-------------------------------------------------|
|---1-----1-----1-----1-----0-----0-----0-----0---|
|-----0-----0-----0-----0-----0-----0-----0-----0-|
|-------0-----2-----3-----5-----3-----2-----0-----|
|-3-----------------------------------------------|
|-------------------------------------------------|
..blame
|-------------------------------------------------|
|--1-----3-------1-----1-----1-----1-----1-----1--|
|----2-----4-------2-----2-----0-----0-----0-----0|
|-3-----5------3-----0-----3-----2-----0-----2----|
|-------------------------------------------------|
|-------------------------------------------------|

C      Am         Em   F  G
  Here comes your man
C         Am                  Em      F  G
  Rolling down the street the callous field,
   C       Am      Em   F  G
He puts it in your hand
C           Am               Em            F 
  And all the world is but a whistle and a milkshake.
  G           Am             C
O how can you breathe little blue?
         F               G
You have hooks, you have holes in you,
        Am          C       F                             
In absentium and in lieu of all the things 
               G  
That have been promised you... but

|-------------------------------------------------|
|---1-----1-----1-----1-----0-----0-----0-----0---|
|-----0-----0-----0-----0-----0-----0-----0-----0-|
|-------0-----2-----3-----5-----3-----2-----0-----|
|-3-----------------------------------------------|
|-------------------------------------------------|
  O     my    sweet how   incomplete        you
|-------------------------------------------------|
|--1-----3-------1-----1-----1-----1-----1-----1--|
|----2-----4-------2-----2-----0-----0-----0-----0|
|-3-----5------3-----0-----3-----2-----0-----2----|
|-------------------------------------------------|
|-------------------------------------------------|
  Are,                     in    your  eyes  a
|-------------------------------------------------|
|---1-----1-----1-----1-----0-----0-----0-----0---|
|-----0-----0-----0-----0-----0-----0-----0-----0-|
|-------0-----2-----3-----5-----7-----9-----10----|
|-3-----------------------------------------------|
|-------------------------------------------------|
 Smile  so    sweet a     silly      soldier's
|-------------------------------------------------|
|---1-----3-----1-----1-----1-----1-----1-----1---|
|-----2-----4-----2-----2-----0-----0-----0-----0-|
|-3-----5-----3-----0-----3-----2-----0-----2-----|
|-------------------------------------------------|
|-------------------------------------------------|
  Scar                    splits your face  from 

Am     C           F             G              Am
Ear to ear, you pretend that you simply cannot hear
    C             F           G               C
The bells and the bombs going off in the galleria.


       Am        Em        G
  Here comes the night the night
C      Am     Em       F  G
  Roll on you careless evening,
C      Am Em    F  G
  When we unite
C       Am
  Not a force concurs,
      Em       F 
  Not hell nor heaven,
  G         Am           C
  So let it come, let it rain

         F                    G
  Let it burn through you and me again
         Am            C
  In the slums without name,
         F          G
  And it isn't only poverty to.. 

  1 2 3 4 5 6 1 2 3 4 5 6 1 2 3 4 5 6 1 2 3 4 5 6  
|-------------------------------------------------|
|-1-----1-----1-----1-----0-----0-----0-----0-----|
|-0-----0-----0-----0-----0-----0-----0-----0-----|
|-2-----0-----2-----3-----5-----3-----2-----0-----|
|-3-----3-----3-----3-----------------------------|
|-------------------------------------------------|
..Blame my    sweet how   incomplete        we

  1 2 3 4 5 6 1 2 3 4 5 6 1 2 3 4 5 6 1 2 3 4 5 6  
|-------------------------------------------------|
|-1-1-1-2-2-2-1-1-1-2-2-2-1-----1-----1-----1-----|
|-2-2-2-3-3-3-2-2-2-3-3-3-0-----0-----0-----0-----|
|-3-3-3-5-5-5-3-3-3-5-5-5-3-----2-----0-----2-----|
|-------------------------------------------------|
|-------------------------------------------------|
  are,                    in    their eyes  am 
  1 2 3 4 5 6 1 2 3 4 5 6 1 2 3 4 5 6 1 2 3 4 5 6  
|-------------------------------------------------|
|-1-----1-----1-----1-----0-----0-----0-----0-----|
|-0-----0-----0-----0-----0-----0-----0-----0-----|
|-2-----0-----2-----3-----5-----3-----2-----0-----|
|-3-----3-----3-----3-----------------------------|
|-------------------------------------------------|  
  I     from  dust  you   from  my    bones   im-

  1 2 3 4 5 6 1 2 3 4 5 6 1 2 3 4 5 6 1 2 3 4 5 6  
|-------------------------------------------------|
|-1-1-1-2-2-2-1-1-1-2-2-2-1-----1-----1-----1-----|
|-2-2-2-3-3-3-2-2-2-3-3-3-0-----0-----0-----0-----|
|-3-3-3-5-5-5-3-3-3-5-5-5-3-----2-----0-----2-----|
|-------------------------------------------------|
|-------------------------------------------------|
  Parted           and if that  don't make  you 

C     G  C G     C      G C    G    
Laugh at nature's rough replacement

Link

C  G  C  G 
Am D  G  G
(D)
Too late in all

C      Am        Em    F  G
  Here comes the night
C      Am        Em    F  G
  Here comes the night
C      Am     Em    F  G
  Roll on you night
C      Am        Em 
  Here comes the night
  F          G           C
  The night. good night. roll on

End

Добавлено: 27.11.2015
Другие материалы по этой песне:
  • Аккорды и текст

Страница создана 27.07.2012
http://primanota.ru/augie-march/here-comes-the-night-chords.htm
Привет, Гость.
Предлагаем пройти революционный курс по гитаре.
Подарок от PrimaNota.Ru, забирай!