PrimaNota.ru - самый крупный в мире бесплатный архив песенных текстов, аккордов, табулатур и нот


Augie March - Bottle Baby - текст песни, таба, видео

Регистрация Запомнить меня
Войти через:  Facebook Google Twitter Vk Yandex Mail.ru

Augie March - Bottle Baby - текст песни, таба, видео

Печатать
Просмотров: 172
Bottle Baby by Augie March

tuning = standard
p = pull
(lyrics are located directly underneath their musical counterparts)

intro:  
E|----1--------1----0------0-----------------------------------|
B|---------------------------------1-------1p0----0-------0----|
G|----------------------------0---------------0-------------0--|
D|-------------------------------------------------------------| X4
A|--3-------3-----3-------3-----0-------0----------------------|
E|----------------------------------------------3-------3------|

verse 1:
E|----1--------1----0------0-----------------------------------|
B|---------------------------------1-------1p0----0-------0----|
G|----------------------------0---------------0-------------0--|
D|-------------------------------------------------------------| X4
A|--3-------3-----3-------3-----0-------0----------------------|
E|----------------------------------------------3-------3------|

Your issue may walk among fine moral spires,
But if they went up somebody else built them.
Your store is a small one your goods have no buyers,
Your parents are raising your children.

E|-------------------------------------------------------------|
B|----1--------1----1------1-------0-------0------0-------0----|
G|---------------0------------0---------------0-------------0--|
D|----------------2-------2------------------------------------| X3
A|--3-------3--------------------------------------------------|	
E|------------------------------3-------3-------3-------3------|

Oh, I could have told you, the vices won't hold you,
Warm in a coil where you lay.
But high up they hang you, seized by the temple,

E|-------------------------------------------------------------|
B|----1--------1----1------1-------0-------0------0-------0----|
G|---------------0------------0---------------0-------------0--|
D|-------------------------------------------------------------|
A|--0-------0-----3-------3------------------------------------|	
E|------------------------------3-------3-------3-------3------|

And bid you obey and obey,

E|-------------------------------------------------------------|
B|----1--------1----1------1-------0-------0------0-------0----|
G|---------------0------------0---------------0-------------0--|
D|----------------2-------2------------------------------------|
A|--3-------3--------------------------------------------------|	
E|------------------------------3-------3-------3-------3------|

A heinous, heinous law, of an…

E|-------------------------------------------------------------|
B|----1--------1----1------1-------0-------0-------------------|
G|---------------0------------0---------------0----------------|
D|-------------------------------------------------------------|
A|--0-------0-------------------------------------0--------2---|	
E|----------------0-------0-----3-------3-------3--------------|

Endless, endless love, that governs your…

E|----1--------1----0------0-----------------------------------|
B|---------------------------------1-------1p0----0-------0----|
G|----------------------------0---------------0-------------0--|
D|-------------------------------------------------------------| X2
A|--3-------3-----3-------3-----0-------0----------------------|
E|----------------------------------------------3-------3------|

Poor heart, in its velvety chambers,
Where fellows foul met, engage in exchanges,

E|-------------------------------------------------------------|
B|----1--------1----1------1-------0-------0------0-------0----|
G|---------------0------------0---------------0-------------0--|
D|----------------2-------2------------------------------------|
A|--3-------3--------------------------------------------------|	
E|------------------------------3-------3-------3-------3------|

Whose ends are to put out your lights,

E|-------------------------------------------------------------|
B|----1--------1----1------1-------0-------0------0-------0----|
G|---------------0------------0---------------0-------------0--|
D|-------------------------------------------------------------|
A|--0-------0-----3-------3------------------------------------|	
E|------------------------------3-------3-------3-------3------|

Who know from the inside you won't put up a fight to a…


E|-------------------------------------------------------------|
B|----1--------1----1------1-------0-------0------0-------0----|
G|---------------0------------0---------------0-------------0--|
D|----------------2-------2------------------------------------|
A|--3-------3--------------------------------------------------|	
E|------------------------------3-------3-------3-------3------|

Heinous, heinous law, of an…

E|-------------------------------------------------------------|
B|----1--------1----1------1-------0-------0-------------------|
G|---------------0------------0---------------0----------------|
D|-------------------------------------------------------------|
A|--0-------0-------------------------------------0--------2---|	
E|----------------0-------0-----3-------3-------3--------------|

Endless, endless love, that governs your…

E|----1--------1----0------0-----------------------------------|
B|---------------------------------1-------1p0----0-------0----|
G|----------------------------0---------------0-------------0--|
D|-------------------------------------------------------------| X4
A|--3-------3-----3-------3-----0-------0----------------------|
E|----------------------------------------------3-------3------|

Poor heart.


E|----1--------1----0------0-----------------------------------|
B|---------------------------------1-------1p0----0-------0----|
G|----------------------------0---------------0-------------0--|
D|-------------------------------------------------------------| X4
A|--3-------3-----3-------3-----0-------0----------------------|
E|----------------------------------------------3-------3------|

It's winter in my bedroom, I stir the broken spring,
And I have in my head to go crawling,
When the hounds come around, I go to the bottle,
Like every wet shadow before me.

E|-------------------------------------------------------------|
B|----1--------1----1------1-------0-------0------0-------0----|
G|---------------0------------0---------------0-------------0--|
D|----------------2-------2------------------------------------| X8
A|--3-------3--------------------------------------------------|	
E|------------------------------3-------3-------3-------3------|

Now are you angry at me cos I'm no longer free?
I don't sound it or say it or feel it.
But out on the street, somebody told me,
“It happens to everyone.”

So I don't blame you, it's my foot in my shoe,
And I seem to have easily filled it,
While the thing in my charge whether tiny or large,
I fear I may slowly have killed it, obeying a…

E|-------------------------------------------------------------|
B|----1--------1----1------1-------0-------0------0-------0----|
G|---------------0------------0---------------0-------------0--|
D|----------------2-------2------------------------------------| X2
A|--3-------3--------------------------------------------------|	
E|------------------------------3-------3-------3-------3------|

Heinous, heinous law, obeying a…
Heinous, heinous law, obeying a…

E|-------------------------------------------------------------|
B|----1--------1----1------1-------0-------0------0-------0----|
G|---------------0------------0---------------0-------------0--|
D|----------------2-------2------------------------------------|
A|--3-------3--------------------------------------------------|	
E|------------------------------3-------3-------3-------3------|

Heinous, heinous law, of an…

E|-------------------------------------------------------------|
B|----1--------1----1------1-------0-------0-------------------|
G|---------------0------------0---------------0----------------|
D|-------------------------------------------------------------|
A|--0-------0--------------------------------------------------|	
E|----------------0-------0-----3-------3-------3--------------|

Endless, endless love, that governs your…

E|----1--------1----0------0-----------------------------------|
B|---------------------------------1-------1p0----0-------0----|
G|----------------------------0---------------0-------------0--|
D|-------------------------------------------------------------| X3
A|--3-------3-----3-------3-----0-------0----------------------|
E|----------------------------------------------3-------3------|

Poor heart.

…that governs your

E|----1--------1----0------0-----------------------------------|
B|---------------------------------1-------1p0-----------------|
G|----------------------------0---------------0----------------|
D|----------------------------------------------------0--------|
A|--3-------3-----3-------3-----0-------0----------2-----------|
E|----------------------------------------------3--------------|

Poor heart.

Yo, augie march is a cool australian band that i dig. cya
Добавлено: 05.04.2012
Другие материалы по этой песне:
  • Аккорды и текст

Страница создана 04.04.2012
http://primanota.ru/augie-march/bottle-baby-chords.htm
Привет, Гость.
Предлагаем пройти революционный курс по гитаре.
Подарок от PrimaNota.Ru, забирай!