PrimaNota.ru - самый крупный в мире бесплатный архив песенных текстов, аккордов, табулатур и нот


Auf Der Maur - Lightning Is My Girl - аккорды и текст, бас-таба, видео

Регистрация Запомнить меня
Войти через:  Facebook Google Twitter Vk Yandex Mail.ru

Auf Der Maur - Lightning Is My Girl - аккорды и текст, бас-таба, видео

Печатать
Просмотров: 164
Lightning Is My Girl
Auf Der Maur
           AUF DER MAUR LIGHTNING IS MY GIRL BASS TABS
 
  Standard tuning

  INTRO
  G -----------------------------------------------|
  D -----------------------------------------------|
  A ------------------------12---------------------|
  E -----0-3/7(-)----5555555/----------------------|

  G ----------------------------------------------|
  D ----------------------------------------------|
  A --12-12-12-13-12-12-12-13---------------------|
  E ----------------------------------------------|

  G ----------------------------------------------|
  D ----------------------------------------------|
  A ----------------------------------------------|
  E --5-5-5-6-5-5-5-6-----------------------------|

  Verse
  G ----------------------------------------------|
  D ----------------------------------------------|
  A --------------33-----------------------------|
  E --55-55-55---------------------------------|

  Chorus
  G ----------------------------------------------|
  D ----------------------------------------------|
  A ----------------------------------------------|
  E ---4-3-3-3-3-6-6-6-6-5-5-5-5-5-5-5------------|

  Bridge
  G ----------------------------------------------|
  D ----------------------------------------------|
  A --------------12-12-12-12-13-121212---|
  E -----55555555/--------------------------------|

  Outro
  G ----------------------------------------------|
  D ----------------------------------------------|
  A ----------------------------------------------|
  E -----5-5-5-5-5-5/8----------------------------|


  / slide
   cut off
  (-) let ring
Добавлено: 12.09.2013
Другие материалы по этой песне:
  • Аккорды и текст

Страница создана 15.05.2012
http://primanota.ru/auf-der-maur/lightning-is-my-girl-chords.htm
Привет, Гость.
Предлагаем пройти революционный курс по гитаре.
Подарок от PrimaNota.Ru, забирай!