PrimaNota.ru - самый крупный в мире бесплатный архив песенных текстов, аккордов, табулатур и нот


Auf Der Maur - Isis Speaks - таба, видео

Регистрация Запомнить меня
Войти через:  Facebook Google Twitter Vk Yandex Mail.ru

Auf Der Maur - Isis Speaks - таба, видео

Печатать
Просмотров: 125
-----------------------------------------------------------------
Isis Speaks - Melissa Auf Der Maur
-----------------------------------------------------------------
Tabbed by:DamoModern
Email:damian_nevermind@yahoo.co.uk

Tuning:Standard

This may not be accurate and is missing some of the 2nd guitars parts but i think its 
close enough to play along to the song with. Any suggestions on how to improve it or parts 
that are wrong welcome.


e|---------------------------------------------------------------|
B|---------------------------------------------------------------|
G|-21--19--16--17--17x17\16--14----------------------------------|
D|---------------------------------------------------------------|
A|-19--17--14--15--15x15\14--12----------------------------------|
E|---------------------------------------------------------------|

e|---------------------------------------------------------------|
B|---------------------------------------------------------------|
G|-15--17--11-12--14x14\12--9------------------------------------|
D|---------------------------------------------------------------|
A|-13--15--9--10--12x12\10--7------------------------------------|
E|---------------------------------------------------------------|

Repeat x 6

2nd part - two guitars (one plays open E string)

e|-----------|
B|-----------|
G|-99999999--|
D|-99999999--|   Repeat over and over till intro riff kicks back in
A|-77777775--|
E|-00000000--|

e|------------------------------------------------|
B|------------------------------------------------|
G|-21-----19-----16-----17------17x17\16--14------|
D|------------------------------------------------|
A|-19-----17-----14-----15------15x15\14--12------|
E|------------------------------------------------|

e|------------------------------------------------|
B|------------------------------------------------|
G|-15-----17-----11-----12-----14x14\12--9--------|
D|------------------------------------------------|
A|-13-----15------9-----10-----12x12\10--7--------|
E|------------------------------------------------|



e|-5-------------15~-15-17~-17-19~-19--17~--21~-21-19~-19-17~-17-15--|
B|-6-----------------------------------------------------------------|
G|-7-----------------------------------------------------------------| let chord ring.
D|-7-----12--14------------------------------------------------------| not sure about little
A|-5--14-------------------------------------------------------------| bit after bit this might
E|-------------------------------------------------------------------| be close


e|-----------|
B|-----------|
G|-99999999--|
D|-99999999--|   Repeat over and over again till intro riff kicks back in
A|-77777775--|
E|-00000000--|


e|------------------------------------------------|
B|------------------------------------------------|
G|-21-----19-----16-----17------17x17\16--14------|
D|------------------------------------------------|
A|-19-----17-----14-----15------15x15\14--12------|
E|------------------------------------------------|

e|------------------------------------------------|
B|------------------------------------------------|
G|-15-----17-----11-----12-----14x14\12--9--------|
D|------------------------------------------------|
A|-13-----15------9-----10-----12x12\10--7--------|
E|------------------------------------------------|

Then breakdown  "the woman in my bed" bit. play these both a few times


e|-----2--------3-------7-------5-----------------|
B|--3-3-3------3-3-----7-7-----5-5----------------|
G|--4--------4-------8-------4--------------------|
D|--4--------5-------9-------7--------------------|
A|--2--------5-------9-------7--------------------|
E|-----------3-------7-------5--------------------|


e|---------------------------------------------------------|
B|---------------------------------------------------------|
G|-9999------------------------7777------------------------|
D|-9999-x2--5555-----9999------7777--x2--------------------|
A|-7777-----5555-x2--9999-x2---5555------------------------|
E|----------3333-----7777----------------------------------|

Ending riff just play about with this and repeat it a few times

e|---------------------------------------------------------|
B|---------------------------------------------------------|
G|---------------------------------------------------------|
D|---------------------------------------------------------|
A|-7---------------------------------------------3---7-----|
E|---0--3--7--7--0--3--7--5---0--3--5--5--0--3h5-----------|

e|------------------------------------------------------------|
B|------------------------------------------------------------|
G|------------------------------------------------------------|
D|------------------------------------------------------------|
A|--------------------7---9h7---------------------------------|
E|-0--5--7--9--0--7h9---0-----9-------------------------------|



| /  slide up
| \  slide down
| h  hammer-on
| p  pull-off
| ~  vibrato
| +  harmonic
| x  Mute note
Добавлено: 29.05.2012
Другие материалы по этой песне:
  • Аккорды и текст

Страница создана 29.05.2012
http://primanota.ru/auf-der-maur/isis-speaks-chords.htm
Привет, Гость.
Предлагаем пройти революционный курс по гитаре.
Подарок от PrimaNota.Ru, забирай!