PrimaNota.ru - самый крупный в мире бесплатный архив песенных текстов, аккордов, табулатур и нот


Auf Der Maur - Followed The Waves - аккорды и текст, таба, видео

Регистрация Запомнить меня
Войти через:  Facebook Google Twitter Vk Yandex Mail.ru

Auf Der Maur - Followed The Waves - аккорды и текст, таба, видео

Печатать
Просмотров: 172
Авторы музыки: Melissa Auf der Maur
Авторы текста: Melissa Auf der Maur
Followed The Waves
Auf Der Maur
Mellissa Auf Der Maur singing then:
Guitar #1
E--14-14--14--14-/14 14 14 14/-15-|
B-------12--12--------------------|
G---------------------------------|(reapeatx8)
D---------------------------------|
A---------------------------------|
E---------------------------------|
 
then after 4 of those:
Guitar #2
E----------------------|
B----------------------|
G-17-19-21-19-17-19-14-|(repeatx8)
D-0 -0 -0 -0 -0 -0 -0
A---------------------|
E---------------------|

then after 2 of those:
Guitar #3
E---------------------------------|
B---------------------------------|
G---------------------------------|(repeatx6)
D1212121212121212131212121212121212
A1212121212121212131212121212121212
E1010101010101010111010101010101010

then a bass and drums bit with the same rythum (x4)
then:

Guitar #1
Guitar #2
Guitar #3
E-------------------------|
B-------------------------|
G-------------------------|(repeatx4)
D12-12-12-121312-12-12-12-|
A12-12-12-121312-12-12-12-|
E10-10-10-101110-10-10-10-|

then:

Guitar #1
Guitar #2
Guitar #3
E-----------------------------------------------------|
B-----------------------------------------------------|
G-----------------------------------------------------|
D-----------------------------------------------------|
A9-9-10-10-5-5--9-9-1010-7--7--9-9-1010-7--7--5-5-7-7-|
E7-7-8-8--3--3--7-7-8-8--5--5--7-7-8-8--5--5--3-3-5-5-|
-continued-
E--------------|
B--------------|
G--------------|
D--------------|
E--3--0--3--0-|
A--3--0--3--0-|


Return to start but: Guitar #2 doesn't come in till x4
            No Guitar #3

then skip to:

Guitar #1
Guitar #2
Guitar #3
E-----------------------------------------------------|
B-----------------------------------------------------|
G-----------------------------------------------------|
D-----------------------------------------------------|
A9-9-10-10-5-5--9-9-1010-7--7--9-9-1010-7--7--5-5-7-7-|
E7-7-8-8--3--3--7-7-8-8--5--5--7-7-8-8--5--5--3-3-5-5-|
-continued-
E--------------|
B--------------|
G--------------|
D--------------|
E--3--0--3--0-|
A--3--0--3--0-|

Guitar #3
E---------------------------------|
B---------------------------------|
G---------------------------------|(repeatx6)
D1212121212121212131212121212121212
A1212121212121212131212121212121212
E1010101010101010111010101010101010

then:

Guitar #1
Guitar #2
Guitar #3
E-------------------------|
B-------------------------|
G-------------------------|(repeatx4)
D12-12-12-121312-12-12-12-|
A12-12-12-121312-12-12-12-|
E10-10-10-101110-10-10-10-|

then:

Guitar #1
Guitar #2
Guitar #3
E-----------------------------------------------------|
B-----------------------------------------------------|
G-----------------------------------------------------|
D-----------------------------------------------------|
A9-9-10-10-5-5--9-9-1010-7--7--9-9-1010-7--7--5-5-7-7-|
E7-7-8-8--3--3--7-7-8-8--5--5--7-7-8-8--5--5--3-3-5-5-|
-continued-
E--------------|
B--------------|
G--------------|
D--------------|
E--3--0--3--0-|
A--3--0--3--0-|


That is at least this songs basic shell but as you can tell this is about all i can 
so try to enjoy

for any coments/questions e-mail me at: adrian.osullivan@ntlworld.com
or go to my website @ www.adriansworld.0catch.com

This has been tabbed by Adrian O'Sullivan
Добавлено: 28.09.2013
Другие материалы по этой песне:

Страница создана 06.05.2012
http://primanota.ru/auf-der-maur/followed-the-waves-chords.htm
Привет, Гость.
Предлагаем пройти революционный курс по гитаре.
Подарок от PrimaNota.Ru, забирай!