PrimaNota.ru - самый крупный в мире бесплатный архив песенных текстов, аккордов, табулатур и нот


Audrey Mieir - His Name Is Wonderful - таба, видео

Регистрация Запомнить меня
Войти через:  Facebook Google Twitter Vk Yandex Mail.ru

Audrey Mieir - His Name Is Wonderful - таба, видео

Печатать
Просмотров: 20
-------------------------------------------------------------------------------
                             his name is wonderful - Band Name
-------------------------------------------------------------------------------
Tabbed by:
E-mail:
key of F
Tuning:E-A-D-G-B-e

e|---------------------------------------------------------------------------|
B|----------------------------------------------1----1-----------------------|
G|--2----2---2------------3----3---2--2--0--0------------3----3--2-2--2-0--2-|
D|--3----3---3--0--3--3---0----0---0--0--0--0---2----2---0----3--3-3--3-3--3-|
A|--------------0--3--3------------------------------------------------------|
E|---------------------------------------------------------------------------|
   His name is wonderful his name is wonderful his name is wonderful Jesus my
e|---------------------------------------------------------------------------|
B|---------------------------------------------------------------------------|
G|--0------------------------------------------------------------------------|
D|--2------------------------------------------------------------------------|
A|---------------------------------------------------------------------------|
E|---------------------------------------------------------------------------|
   Lord (repeat except the last Jesus is Lord)
e|---------------------------------------------------------------------------|
B|-------------------------------------------------------1--------------1---1|
G|---3-2--0-------0----0----2----3----0--------2---2--3-----0--3-3--3--------|
D|---2-2--2---3---2----2----3---------2--------3---3--2--3--2--3-3--3---3---3|
A|------------3------------------2--------3----------------------------------|
E|---------------------------------------------------------------------------|
   Jesus my Lord He's the great shepherd the rock of all ages almighty God is 
e|---------------------------------------------------------------------------|
B|--1-----------------------------------------1----1-------------------------|
G|-----2----2---2--0--------3---3----2-2--2------------3--3--2--2---3-2---0--|
D|--2--3----3---3--0---3----0---0----0-0--0---2----2---2--3--3--3---2-2---2--|
A|---------------------3-----------------------------------------------------|
E|---------------------------------------------------------------------------|
   He bow down before Him love and adore Him His name is wonderful Jesus my
e|---------------------------------------------------------------------------|
B|---------------------------------------------------------------------------|
G|---------------------------------------------------------------------------|
D|--3------------------------------------------------------------------------|
A|--3------------------------------------------------------------------------|
E|---------------------------------------------------------------------------|
   Lord


************************************

| /   slide up
| \   slide down
| h   hammer-on
| p   pull-off
| ~   vibrato
| +   harmonic
| x   Mute note
| b   Bend
| pb  Pre-bend
| br  Bend release
| pbr Pre-bend release
| brb Bend release bend

************************************
Добавлено: 25.12.2015
Другие материалы по этой песне:
  • Аккорды и текст

Страница создана 25.12.2015
http://primanota.ru/audrey-mieir/his-name-is-wonderful-chords.htm
Привет, Гость.
Предлагаем пройти революционный курс по гитаре.
Подарок от PrimaNota.Ru, забирай!