PrimaNota.ru - самый крупный в мире бесплатный архив песенных текстов, аккордов, табулатур и нот


Audiovent - Remedy - бас-таба, видео

Регистрация Запомнить меня
Войти через:  Facebook Google Twitter Vk Yandex Mail.ru

Audiovent - Remedy - бас-таба, видео

Печатать
Просмотров: 189
Уроки эстрадного вокала в Санкт-Петербурге
Band- Audiovent
Song- Remedy

G --------------------|
D --------------------|
A 2222----------------|
E -----222-3333-33-22-|

G --------------------|
D -----111-2222-22-11-|
A 2222----------------|
E --------------------|

G --------------------|
D --------------------|
A 2222----------------|
E -----222-3333-33-22-|

G -------------------|
D -----111-2222-2222-|
A 2222---------------|
E -------------------|

Verse

G -------------|
D -------------|
A 2-2----------|
E ---3-32-20-0-|

G -------------|
D ---------0-0-|
A 2-2----------|
E ---3-32-2----|

G -------------|
D -------------|
A 2-2----------|
E ---3-32-20-0-|

G -----------|
D ---------0-|
A 2-2--------|
E ---3-32-2--|

Pre-Chorus

G ---------------------|
D ---------------------|
A 2222-----------4444--| x3
E -----3333-2222-------|

G -------------------|
D -------------------|
A 2------------------|
E ---3-3--2-222-2222-|

Chorus

G --------------------|
D --------------------|
A 2222----------------|
E -----222-3333-33-22-|

G --------------------|
D -----111-2222-22-44-|
A 2222----------------|
E --------------------|

G --------------------|
D --------------------|
A 2222----------------|
E -----222-3333-33-22-|

G -------------------|
D -----111-2222-2222-|
A 2222---------------|
E -------------------|

Verse

G -------------|
D -------------|
A 2-2----------|
E ---3-32-20-0-|

G -------------|
D ---------0-0-|
A 2-2----------|
E ---3-32-2----|

G -------------|
D -------------|
A 2-2----------|
E ---3-32-20-0-|

G -----------|
D ---------0-|
A 2-2--------|
E ---3-32-2--|

Pre-Chorus

G ---------------------|
D ---------------------|
A 2222-----------4444--| x3
E -----3333-2222-------|

G ------------------|
D ------------------|
A 2-----------------|
E --3-3--2-222-2222-|

Chorus

G --------------------|
D --------------------|
A 2222----------------|
E -----222-3333-33-22-|

G --------------------|
D -----111-2222-22-44-|
A 2222----------------|
E --------------------|

G --------------------|
D --------------------|
A 2222----------------|
E -----222-3333-33-22-|

G -------------------|
D -----111-2222-2222-|
A 2222---------------|
E -------------------|

Bridge

G ----------------|
D ----------------|
A 2--2-2-22-2--3--| x2
E ----------------|

G ----------|
D ----------|
A ----------| x4
E 3333-3333-


Chorus x3

G --------------------|
D --------------------|
A 2222----------------|
E -----222-3333-33-22-|

G --------------------|
D -----111-2222-22-44-|
A 2222----------------|
E --------------------|

End

G --------------------|
D --------------------|
A 2222----------------|
E -----222-3333-33-22-|

G ---------------------|
D -----111-2222-2222---|
A 2222---------------2-|
E ---------------------|
Добавлено: 31.07.2012
Другие материалы по этой песне:
  • Аккорды и текст

Страница создана 06.04.2012
http://primanota.ru/audiovent/remedy-chords.htm
Привет, Гость.
Предлагаем пройти революционный курс по гитаре.
Подарок от PrimaNota.Ru, забирай!