PrimaNota.ru - самый крупный в мире бесплатный архив песенных текстов, аккордов, табулатур и нот


Audiovent - Rain - таба, бас-таба, драм-таба, видео

Регистрация Запомнить меня
Войти через:  Facebook Google Twitter Vk Yandex Mail.ru

Audiovent - Rain - таба, бас-таба, драм-таба, видео

Печатать
Просмотров: 232
Audiovent - Rain
Tabbed By: chaz
EMail: chazhurst@hotmail.com
Drop D tuning: D A D G B E

*Intro/Verse 1: [Gotta get that sweet delay sound]
|---0--2^(3)v2~~-----------------------------------------10~~------------------
|---3--(bend)-------3------------------------------------10~~------------------
|---2------------------------------5-----------------14------------------------
|---0--------------5---5---------3---3------------12---------------------------
|---0------------3-------------1---------------10------------------------------
|---0--------------------------------------------------------------------------

|---0--2^(3)v2~~-------------------------------1---3---5---3-------------------
|---3----------------3---------------------------------------------------------
|---2------------------------------------------3---5---7---5-------------------
|---0--------------5---5-----------7---7---------------------------------------
|---0------------3---------------5---------------------------------------------
|---0--------------------------5-----5---5-------------------------------------

|---0--22~-----------------------------------------------10~~------------------
|---3----------------3-----------------------------------10~~------------------
|---2------------------------------5-----------------14------------------------
|---0--------------5---5---------3---3------------12---------------------------
|---0------------3-------------1---------------10------------------------------
|---0--------------------------------------------------------------------------

|---0--2^(3)v2~~---------------------------------------------------------------
|---3----------------3---------------------------------------------------------
|---2------------------------------------------10-10---12--12------------------
|---0--------------5---5-----------7---7-------8--8----10--10------------------
|---0------------3---------------5-------------8--8----10--10------------------
|---0--------------------------5-----5---5-----8--8----10--10------------------

*Pre-chorus:
|---0---0---0-0--x--0--0---0-0/--0--0-0---x---3--3--x--------------------------
|---3---3---3-3--x--6--6---6-6/--8--8-8---x---3--3--x--------------------------
|---2---2---2-2--x--5--5---5-5/--7--7-7---x---5--5--x--------------------------
|---0---0---0-0--x--0--0---0-0/--0--0-0---x---5--5--x--------------------------
|---0-----------------------------------------3--3--x--------------------------
|---0--------------------------------------------------------------------------

|---0---0---0-0--x--0--0---0-0/--0--0-0---x------------------------------------
|---3---3---3-3--x--6--6---6-6/--8--8-8---x------------------------------------
|---2---2---2-2--x--5--5---5-5/--7--7-7---x---12--12--12--12-------------------
|---0---0---0-0--x--0--0---0-0/--0--0-0---x---10--10--10--10-------------------
|---0-----------------------------------------10--10--10--10-------------------
|---0-----------------------------------------10--10--10--10-------------------

*Chorus: [Play Twice, heavy distortion]
|------------------------------------------------------------------------------
|------------------------------------------------------------------------------
|------------------------------------------------------------------------------
|-------10---12-------10---12-------10---12---10-----------10---10-------------
|---0---10---12---0---10---12---0---10---12---10---0---0---10---10-------------
|---0---10---12---0---10---12---0---10---12---10---0---0---10---10-------------

|------------------------------------------------------------------------------
|------------------------------------------------------------------------------
|------------------------------------------------------------------------------
|-------10---12-------10---12-------10---12---10-----------10-\----------------
|---0---10---12---0---10---12---0---10---12---10---0---0---10-\----------------
|---0---10---12---0---10---12---0---10---12---10---0---0---10-\----------------

|------------------------------------------------------------------------------
|------------------------------------------------------------------------------
|-------5--x--------7--x--------10-x---------12--12--12------------------------
|---3---3--x----5---5--x----8---8--x----10---10--10--10------------------------
|---3---3--x----5---5--x----8---8--x----10---10--10--10------------------------
|---3---3--x----5---5--x----8---8--x----10---10--10--10------------------------

*Verse 2:
|---0--2^(3)v2~~-------------------------------1---3---5---3-------------------
|---3----------------3---------------------------------------------------------
|---2------------------------------------------3---5---7---5-------------------
|---0--------------5---5-----------7---7---------------------------------------
|---0------------3---------------5---------------------------------------------
|---0--------------------------5-----5---5-------------------------------------

|---0--22~-----------------------------------------------10~~------------------
|---3----------------3-----------------------------------10~~------------------
|---2------------------------------5-----------------14------------------------
|---0--------------5---5---------3---3------------12---------------------------
|---0------------3-------------1---------------10------------------------------
|---0--------------------------------------------------------------------------

|---0--2^(3)v2~~---------------------------------------------------------------
|---3----------------3---------------------------------------------------------
|---2------------------------------------------10-10---12--12------------------
|---0--------------5---5-----------7---7-------8--8----10--10------------------
|---0------------3---------------5-------------8--8----10--10------------------
|---0--------------------------5-----5---5-----8--8----10--10------------------

*Pre-chorus Again:

*Second Chorus:

*Guitar Rift after 2nd Chorus: [repeated fast and very twangy throughout solo]
|---5--0-----5--0-----5--0--5--0-----5--0-----5--0-----------------------------
|---------3--------3--------------3--------3-----------------------------------
|------------------------------------------------------------------------------
|------------------------------------------------------------------------------
|------------------------------------------------------------------------------
|------------------------------------------------------------------------------

*Guitar Solo over rift after 2nd Chorus: [Using a slide or special effect]
|------------------------------------------------------------------------------
|---5-6-5--3~---5-6-5--1~---5-6-5----------------------------------------------
|----------------------------------2~---5~--7~---------------------------------
|------------------------------------------------------------------------------
|------------------------------------------------------------------------------
|------------------------------------------------------------------------------

|------------------------------------------------------------------------------
|---5-6-5--3~---5-6-5--1~---5-6-5----------------------------------------------
|----------------------------------2~---5~--7~--10~--12~--14~~-----------------
|------------------------------------------------------------------------------
|------------------------------------------------------------------------------
|------------------------------------------------------------------------------

*Pre-Chorus Once Again:
|---0---0---0-0--x--0--0---0-0/--0--0-0---x---3--3--x--------------------------
|---3---3---3-3--x--6--6---6-6/--8--8-8---x---3--3--x--------------------------
|---2---2---2-2--x--5--5---5-5/--7--7-7---x---5--5--x--------------------------
|---0---0---0-0--x--0--0---0-0/--0--0-0---x---5--5--x--------------------------
|---0-----------------------------------------3--3--x--------------------------
|---0--------------------------------------------------------------------------

|---0---0---0-0--x--0--0---0-0/--0--0-0---x------------------------------------
|---3---3---3-3--x--6--6---6-6/--8--8-8---x------------------------------------
|---2---2---2-2--x--5--5---5-5/--7--7-7---x---12--12--12--12-------------------
|---0---0---0-0--x--0--0---0-0/--0--0-0---x---10--10--10--10-------------------
|---0-----------------------------------------10--10--10--10-------------------
|---0-----------------------------------------10--10--10--10-------------------

*3rd Chorus: [Play until the end, heavey distortion]
|------------------------------------------------------------------------------
|------------------------------------------------------------------------------
|------------------------------------------------------------------------------
|-------10---12-------10---12-------10---12---10-----------10---10-------------
|---0---10---12---0---10---12---0---10---12---10---0---0---10---10-------------
|---0---10---12---0---10---12---0---10---12---10---0---0---10---10-------------

|------------------------------------------------------------------------------
|------------------------------------------------------------------------------
|------------------------------------------------------------------------------
|-------10---12-------10---12-------10---12---10-----------10-\----------------
|---0---10---12---0---10---12---0---10---12---10---0---0---10-\----------------
|---0---10---12---0---10---12---0---10---12---10---0---0---10-\----------------

|------------------------------------------------------------------------------
|------------------------------------------------------------------------------
|-------5--x--------7--x--------10-x---------12--12--12------------------------
|---3---3--x----5---5--x----8---8--x----10---10--10--10------------------------
|---3---3--x----5---5--x----8---8--x----10---10--10--10------------------------
|---3---3--x----5---5--x----8---8--x----10---10--10--10------------------------

*Outro: [Play twice]
|------------------------------------------------------------------------------
|------------------------------------------------------------------------------
|-------------pick scratched-----------------------------------------5-5-5-5---
|---12---0-----x[12--12-12]----12---0---x--x-x-----12---0---x--x-x---3-3-3-3---
|---12---0-----x[12--12-12]----12---0---x--x-x-----12---0---x--x-x---3-3-3-3---
|---12---0-----x[12--12-12]----12---0---x--x-x-----12---0---x--x-x---3-3-3-3---
Добавлено: 23.07.2012
Другие материалы по этой песне:

Страница создана 27.02.2012
http://primanota.ru/audiovent/rain-chords.htm
Привет, Гость.
Предлагаем пройти революционный курс по гитаре.
Подарок от PrimaNota.Ru, забирай!