PrimaNota.ru - самый крупный в мире бесплатный архив песенных текстов, аккордов, табулатур и нот


Audiovent - One Small Choice - текст песни, бас-таба, видео

Регистрация Запомнить меня
Войти через:  Facebook Google Twitter Vk Yandex Mail.ru

Audiovent - One Small Choice - текст песни, бас-таба, видео

Печатать
Просмотров: 140
audiovent - one small choice
hecho por doky 2004

5 stringed bass

G D A E B


verso

|---------------------------5h7-5------|
|--------------------------5-----7-5-3-|
|-1-1/5---3---3---1-1/5---3------------|
|--------------------------------------|
|--------------------------------------|

|-----------------------------------------|
|-----------------------------------------|
|-1-1/5---3---3---1-1/5---333333333333333-|
|-----------------------------------------|
|-----------------------------------------|

coro

|------------------------------------------------------------------|
|------------------------------------------------------------------|
|-1111111155555555333333333333333311111111--------3333555577778888-|
|-----------------------------------------11111111-----------------|
|------------------------------------------------------------------|

|--------------------------------------------------------------------|
|--------------------------------------------------------------------|
|-1111111155555555333333333333333311111111--------33333333333333-----|
|-----------------------------------------11111111-------------------|
|---------------------------------------------------------------1----|

coro 2

|------------------------------------------------------------------|
|------------------------------------------------------------------|
|-1111111155555555333333333333333311111111--------3333555577778888-|
|-----------------------------------------11111111-----------------|
|------------------------------------------------------------------|

|---------------------------------------------------------------------|
|---------------------------------------------------------------2-3-5-|
|-1111111155555555333333333333333311111111--------33333333333333------|
|-----------------------------------------11111111--------------------|
|---------------------------------------------------------------------|

middle

|-----------------------------------|
|-----------------------------------|
|-----------------------------------|
|-----------------------------------|
|-444---444---444---111---111---111-|

|-----------------------------------|
|-----------------------------------|
|-666---666---666---333---333---333-|
|-----------------------------------|
|-----------------------------------|


gracias mis cuates taras partys de mi curso por ser tan taras y en especial
a Daniela Bustillos... eres muy taaara

doky 2004
Добавлено: 10.06.2012
Другие материалы по этой песне:
  • Аккорды и текст

Страница создана 10.06.2012
http://primanota.ru/audiovent/one-small-choice-chords.htm
Привет, Гость.
Предлагаем пройти революционный курс по гитаре.
Подарок от PrimaNota.Ru, забирай!