PrimaNota.ru - самый крупный в мире бесплатный архив песенных текстов, аккордов, табулатур и нот


Audiovent - Gravity - текст песни, бас-таба, видео

Регистрация Запомнить меня
Войти через:  Facebook Google Twitter Vk Yandex Mail.ru

Audiovent - Gravity - текст песни, бас-таба, видео

Печатать
Просмотров: 186
Уроки эстрадного вокала в Санкт-Петербурге
audiovent - gravity

bajo de 6 cuerdas
C G D A E B

o en su mejor caso bajo de 5 cuerdas
G D A E B

y sobreponer las notas de la cuerda C a la cuerda G


intro

|---------------------------------|
|---------------------------------|
|---------------------------------|
|---------------------------------|
|---------------1-----------------|
|-3313-313-313-3--3313-313-313-31-|

|----------------------------------|
|----------------------------------|
|----------------------------------|
|----------------------------------|
|-----------------321-3-313-313-31-|
|-1111-111-111-11------------------|

verso

|-----------------------|-----------------------------------|
|-----------------------|----5------5----------5-------5-5--|
|-----------------------|7777-7-7777-7-77776666-6-66666-6-6-|
|------5-3--------------|-----------------------------------|
|----------1111/13-13\1-|-----------------------------------|
|-3333------------------|-----------------------------------|

pre-coro

|---------------------------------------|
|---------------------------------------|
|---------------------------------------|
|---------------------------------------|
|-3-3333/17-17171717\5-5555/20-20202020-|
|---------------------------------------|

coro

|-----------------------------------------------------------------|
|-----------------------------------------------------------------|
|-----------------------------------------------------------------|
|-----------------------------------------------------------------|
|-----------------1111-111-111-11-3333-333-333-33-----------------|
|-3333-333-333-33---------------------------------4444-444-444-44-|

|--------------------------------------------------------------|
|--------------------------------------------------------------|
|--------------------------------------------------------------|
|------------------------------------3--3--33------------------|
|-----------------666------3-33-6-66----------321-3-313-313-31-|
|-3333-333-333-33-----6-66------------00-00--------------------|

verso

|-----------------------|-----------------------------------|
|-----------------------|----5------5----------5-------5-5--|
|-----------------------|7777-7-7777-7-77776666-6-66666-6-6-|
|------5-3--------------|-----------------------------------|
|----------1111/13-13\1-|-----------------------------------|
|-3333------------------|-----------------------------------|

|-----------------------|-----------------------------------|
|-----------------------|----5------5----------5-------5-5--|
|-----------------------|7777-7-7777-7-77776666-6-66666-6-6-|
|------5-3--------------|-----------------------------------|
|----------1111----13\1-|-----------------------------------|
|-3333------------------|-----------------------------------|

pre-coro

|---------------------------------------|
|---------------------------------------|
|---------------------------------------|
|---------------------------------------|
|-3-3333/17-17171717\5-5555/20-20202020-|
|---------------------------------------|

coro

|-----------------------------------------------------------------|
|-----------------------------------------------------------------|
|-----------------------------------------------------------------|
|-----------------------------------------------------------------|
|-----------------1111-111-111-11-3333-333-333-33-----------------|
|-3333-333-333-33---------------------------------4444-444-444-44-|

|--------------------------------------------------------------|
|--------------------------------------------------------------|
|--------------------------------------------------------------|
|------------------------------------3--3--33------------------|
|-----------------666------3-33-6-66----------321-3-313-313-31-|
|-3333-333-333-33-----6-66------------00-00--------------------|

middle

|------------------------------------------------------|
|------------------------------------------------------|
|------------------------------------------------------|
|---------------------------------------------53-3-----|
|---------------------------------------666-----5-5-3--|
|-6-6666666666-5-5555555555-4-4444666777---333-------3-|


|-----------------------------------------333--|
|----------------------------------------------|
|----------------------------------333-555-----|
|--------------------------------6-------------|
|----------------------------------------------|
|-6-6666666666-5-555555555-4-4444------------3-|

coro

|-----------------------------------------------------------------|
|-----------------------------------------------------------------|
|-----------------------------------------------------------------|
|-----------------------------------------------------------------|
|-----------------1111-111-111-11-3333-333-333-33-----------------|
|-3333-333-333-33---------------------------------4444-444-444-44-|

|--------------------------------------------------------------|
|--------------------------------------------------------------|
|--------------------------------------------------------------|
|------------------------------------3--3--33------------------|
|-----------------666------3-33-6-66----------321-3-313-313-31-|
|-3333-333-333-33-----6-66------------00-00--------------------|

|-----------------------------------------------------------------|
|-----------------------------------------------------------------|
|-----------------------------------------------------------------|
|-----------------------------------------------------------------|
|-----------------1111-111-111-11-3333-333-333-33-----------------|
|-3333-333-333-33---------------------------------4444-444-444-44-|

|--------------------------------------------------------------|
|--------------------------------------------------------------|
|--------------------------------------------------------------|
|------------------------------------3--3--33------------------|
|-----------------666------3-33-6-66----------321-3-313-313-31-|
|-3333-333-333-33-----6-66------------00-00--------------------|

fin

|------------------------------------|
|------------------------------------|
|------------------------------------|
|-3---3--3-3---3/13-1313131313131313-|
|------------------------------------|
|---1---1-1--1-----------------------|

|--------------------|
|--------------------|
|--------------------|
|-3---3--3-3---3-111-|
|--------------------|
|---1---1-1--1--1----|

|-----------------------------|
|-----------------------------|
|-----------------------------|
|-3---3--3--------------------|
|-----------------------------|
|---1---1-1-33-33-33-33-33-33-|

gracias a mis cuates de mi curso por saber comprenderme mis locuras mas taras que hice
durante 4to qb 2005... no los olvidare ni a ustedes ni a mis locuras


doky 2005
Добавлено: 22.07.2012
Другие материалы по этой песне:
  • Аккорды и текст

Страница создана 09.03.2012
http://primanota.ru/audiovent/gravity-chords.htm
Привет, Гость.
Предлагаем пройти революционный курс по гитаре.
Подарок от PrimaNota.Ru, забирай!