PrimaNota.ru - самый крупный в мире бесплатный архив песенных текстов, аккордов, табулатур и нот


Audiovent - Back And Forth - текст песни, таба, бас-таба, видео

Регистрация Запомнить меня
Войти через:  Facebook Google Twitter Vk Yandex Mail.ru

Audiovent - Back And Forth - текст песни, таба, бас-таба, видео

Печатать
Просмотров: 196
Band- Audiovent
Song- Back And Forth

Tuning: Drop-D (E-B-G-D-A-D)

Notes:    m=palm mute
          /=slide up
          \=slide down

This song is played with distortion UNLESS OTHERWISE NOTED!


Song Structure:

Intro 1
Intro 2
Verse
Chorus
Verse
Chorus
Bridge
Chorus
Outro


Intro 1 (clean)

|-------------------------------|-------------------------|
|-------------------------------|-------------------------|
|-555-------------1010-101010---|-555---------------------|
|-555---333---666-1010-101010---|-555---333---666---111---|
|-333---333---666--8-8--8-8-8---|-333---333---666---111---|
|-----0-333-0-666--8-8--8-8-8-0-|-----0-333-0-666-0-111-0-|

|-------------------------------|---------------------|
|-------------------------------|---------------------|
|-555-------------1010-101010---|-555-----------------|
|-555---333---666-1010-101010---|-555---333---xxxxxxx-|
|-333---333---666--8-8--8-8-8---|-333---333---xxxxxxx-|
|-----0-333-0-666--8-8--8-8-8-0-|-----0-333-0-xxxxxxx-|


Intro 2

|-------------------------------|-------------------------|
|-------------------------------|-------------------------|
|-555-------------1010-101010---|-555---------------------|
|-555---333---666-1010-101010---|-555---333---666---111---|
|-333---333---666--8-8--8-8-8---|-333---333---666---111---|
|-----0-333-0-666--8-8--8-8-8-0-|-----0-333-0-666-0-111-0-|

|-------------------------------|-------------------------|
|-------------------------------|-------------------------|
|-555-------------1010-101010---|-555---------------------|
|-555---333---666-1010-101010---|-555---333---666---111---|
|-333---333---666--8-8--8-8-8---|-333---333---666---111---|
|-----0-333-0-666--8-8--8-8-8-0-|-----0-333-0-666-0-111-0-|


Verse

    m------------>       m----->            
|--------------------|--------------------|
|--------------------|--------------------|
|-5-55555555555555---|-8-88888888888888---|
|-5-55555555555555---|-8-88888888888888---|
|-3-33333333333333---|-6-66666666666666---|
|------------------0-|-6-66666666666666-0-|

    m--------->          m----> m> m>
|--------------------|----------------------|
|--------------------|----------------------|
|-3-33333333333333---|-6-666666-6-66-5-6-66-|
|-3-33333333333333---|-6-666666-6-66-6-6-66-|
|-1-11111111111111---|-4-444444-4-44-4-4-44-|
|-1-11111111111111-0-|-4-444444---44-----44-|

    m------------>       m----->      
|--------------------|--------------------|
|--------------------|--------------------|
|-5-55555555555555---|-3-33333333333333---|
|-5-55555555555555---|-3-33333333333333---|
|-3-33333333333333---|-1-11111111111111---|
|------------------0-|-1-11111111111111-0-|

    m--------->
|--------------------|------------------|
|--------------------|------------------|
|-6-66666666666666---|-8-88888888888888-|
|-6-66666666666666---|-8-88888888888888-|
|-4-44444444444444---|-6-66666666666666-|
|-4-44444444444444-0-|-6-66666666666666-|


Chorus

|-------------------------------|-------------------------|
|-------------------------------|-------------------------|
|-555-------------1010-101010---|-555---------------------|
|-555---333---666-1010-101010---|-555---333---666---111---|
|-333---333---666--8-8--8-8-8---|-333---333---666---111---|
|-----0-333-0-666--8-8--8-8-8-0-|-----0-333-0-666-0-111-0-|

|-------------------------------|-------------------------|
|-------------------------------|-------------------------|
|-555-------------1010-101010---|-555---------------------|
|-555---333---666-1010-101010---|-555---333---666---111---|
|-333---333---666--8-8--8-8-8---|-333---333---666---111---|
|-----0-333-0-666--8-8--8-8-8-0-|-----0-333-0-666-0-111-0-|

|-------------------------------|-------------------------|
|-------------------------------|-------------------------|
|-555-------------1010-101010---|-555---------------------|
|-555---333---666-1010-101010---|-555---333---666---111---|
|-333---333---666--8-8--8-8-8---|-333---333---666---111---|
|-----0-333-0-666--8-8--8-8-8-0-|-----0-333-0-666-0-111-0-|

|-------------------------------|-------------------------|
|-------------------------------|-------------------------|
|-555-------------1010-101010---|-555---------------------|
|-555---333---666-1010-101010---|-555---333---666---111---|
|-333---333---666--8-8--8-8-8---|-333---333---666---111---|
|-----0-333-0-666--8-8--8-8-8-0-|-----0-333-0-666-0-111-0-|


Bridge   (lyrics will help you thru this part)

|-----------------------------------------------------------------|
|-----------------------------------------------------------------|
|---------------------------------888888888888888-----------------|
|-666666666666666\333333333333333/888888888888888\444444444444444-|
|-666666666666666\333333333333333/666666666666666\444444444444444-|
|-666666666666666\333333333333333/666666666666666\444444444444444-|

  what did i..... to deserve..... when will...... out

|-----------------------------------------------------------------|
|-----------------------------------------------------------------|
|-----------------------------------------------------------------|
|-666666666666666\333333333333333\111111111111111/444444444444444-|
|-666666666666666\333333333333333\111111111111111/444444444444444-|
|-666666666666666\333333333333333\111111111111111/444444444444444-|

  and when you... will you....... only words..... allow


Outro (play first measure four times then second measure once)

|----------------|--------|
|*--------------*|--------|
|--555-----------|--------|
|--555-33-333----|-111111-|
|*-333-33-333---*|-111111-|
|------33-333-0--|-111111-|

|----------------|---|
|*--------------*|---|
|--555-----------|---|
|--555-33-333----|-1-|
|*-333-33-333---*|-1-|
|------33-333-0--|-1-|  (let final chord ring)


Song Structure:

Intro 1
Intro 2
Verse
Chorus
Verse
Chorus
Bridge
Chorus
Outro
Добавлено: 17.03.2012
Другие материалы по этой песне:
  • Аккорды и текст

Страница создана 17.03.2012
http://primanota.ru/audiovent/back-and-forth-chords.htm
Привет, Гость.
Предлагаем пройти революционный курс по гитаре.
Подарок от PrimaNota.Ru, забирай!