PrimaNota.ru - самый крупный в мире бесплатный архив песенных текстов, аккордов, табулатур и нот


The Audiots - Wait And See - таба, видео

Регистрация Запомнить меня
Войти через:  Facebook Google Twitter Vk Yandex Mail.ru

The Audiots - Wait And See - таба, видео

Печатать
Просмотров: 25
Уроки эстрадного вокала в Санкт-Петербурге
-----------------------------------------------------------------
WAIT AND SEE - The Audiots
-----------------------------------------------------------------
Tabbed by: Adrian Ceja
Email: ceja.adrian@ymail.com

Tuning: Standard (EADGBe)
(Rhythm and Lead Guitar Mixed Tab)

[Intro]

e|----------0-|-||--4-|-||-----|
B|----------5-|-||--4-|-||-----|
G|--9-|-||--6-|-||--6-|-||--6--|
D|--9-|-||--6-|-||--7-|-||--6--|
A|-11-|-||--4-|-||----------7--|
E|-12-|-||---------------------|


[Verse]


e|-----------------------------------|
B|-----------------------------------|
G|-4-|-||---9-|-||---8-|-||--8-|-||--| x2
D|-6-|-||--11-|-||--11-|-||--9-|-||--|
A|-----------------------------------|
E|-----------------------------------|


[Bridge 1]

(With Lots of Fuzz!)
e|--------------------------------------------------------|
B|-------/12-12-|||12-14---12-14-16-17-16-14-16-14--12-12-|
G|-4-|-||-------------------------------------------------|
D|-6-|-||-------------------------------------------------|
A|--------------------------------------------------------|
E|--------------------------------------------------------|

e|------------------|
B|-14-16-14--12--12-|
G|------------------|
D|------------------|
A|------------------|
E|------------------|


[Chorus]


e|---------------------------------------------------------|
B|---------------------------------------------------------|
G|---------------------------------------------------------|
D|--------6---------------------6-x-7-6--------------------|
A|x-7-9-x--9-7---------8-8---x-9-------9-6-x-6-6-x-9-9-6-6-|
E|------------9-x-x-9-x---9-x------------------------------|

e|------------------------------------|
B|------------------------------------|
G|------------------------------------| x2
D|-----6---------2------6-7-------4---|
A|-7-9---9\4-4-4--4----9---9\6-6-6--6-|
E|------------------------------------|

e|----|
B|----|
G|-6--|
D|-6--|
A|-7--|
E|-7--|


[Solo]


(Part 1)

e|----------------------------------/16---14---/12---11----|
B|-/16-||-|-|-||-|--14-||-|-|-||-|-----17---16----14---/12-|
G|---------------------------------------------------------|
D|---------------------------------------------------------|
A|---------------------------------------------------------|
E|---------------------------------------------------------|

e|-/16---(16)-14---(14)--/12------11----|
B|------17--------16---------14-----/12-|
G|--------------------------------------|
D|--------------------------------------|
A|--------------------------------------|
E|--------------------------------------|

(Part 2)

e|---16-----14-----12------------------------|
B|-17--17-16--16-14--14-12--12--\10-10/12\10-|
G|-------------------------------------------| x2
D|-------------------------------------------|
A|-------------------------------------------|
E|-------------------------------------------|


[Verse]


e|-----------------------------------|
B|-----------------------------------|
G|-4-|-||---9-|-||---8-|-||--8-|-||--| x2
D|-6-|-||--11-|-||--11-|-||--9-|-||--|
A|-----------------------------------|
E|-----------------------------------|


[Bridge 2]

(With Lots of Fuzz!)
e|----------------------------------------------------------|
B|----------------------------------------------------------|
G|-4-|-||-----------------4-/9-8-6-8-6--\4-4---6-/8-6--\4-4-|
D|-6-|-||-/6-4-6-4------6-----------------------------------|
A|------------7--(7)--7-------------------------------------|
E|----------------------------------------------------------|


[Chorus]


e|---------------------------------------------------------|
B|---------------------------------------------------------|
G|---------------------------------------------------------|
D|--------6---------------------6-x-7-6--------------------|
A|x-7-9-x--9-7---------8-8---x-9-------9-6-x-6-6-x-9-9-6-6-|
E|------------9-x-x-9-x---9-x------------------------------|

e|------------------------------------|
B|------------------------------------|
G|------------------------------------| x2
D|-----6---------2------6-7-------4---|
A|-7-9---9\4-4-4--4----9---9\6-6-6--6-|
E|------------------------------------|

e|----|
B|----|
G|-6--|
D|-6--|
A|-7--|
E|-7--|

------------------------------------------------------------

END!! 
Enjoy!
-AC

------------------------------------------------------------

************************************

| x    Dead note
| (n)  Ghost note  
| /    slide up 
| \    slide down 

************************************
Добавлено: 18.10.2017
Вам также может быть интересно:
Другие материалы по этой песне:
  • Аккорды и текст

Страница создана 18.10.2017
http://primanota.ru/audiots/wait-and-see-chords.htm
Привет, Гость.
Предлагаем пройти революционный курс по гитаре.
Подарок от PrimaNota.Ru, забирай!