PrimaNota.ru - самый крупный в мире бесплатный архив песенных текстов, аккордов, табулатур и нот


The Audiots - Calling You All Night - таба, видео

Регистрация Запомнить меня
Войти через:  Facebook Google Twitter Vk Yandex Mail.ru

The Audiots - Calling You All Night - таба, видео

Печатать
Просмотров: 25
Уроки эстрадного вокала в Санкт-Петербурге
-----------------------------------------------------------------
CALLING YOU ALL NIGHT - The Audiots
-----------------------------------------------------------------
Tabbed by: Adrian Ceja
Email: ceja.adrian@ymail.com

Tuning: Standard (EADGBe)


[Intro Riff]


(Guitar 1)
[Nachito]
e|-----------------------------------------------------------------------------------|
B|----12-12-10-10-12-12----12-12-10-10-12-12---12-12-10-10-12-12---12-12-10-10-12-12-|
G|-10-------------------10-------------------9-------------------9-------------------| (x3)
D|-----------------------------------------------------------------------------------|
A|-----------------------------------------------------------------------------------|
E|-----------------------------------------------------------------------------------|

e|-----------------------------------------------------------------------------------|
B|-----12-12--10-10--12-12------12-12--10-10--12-12-----12-12--10-10--12-12----------|
G|-10-----------------------10-----------------------9------------------------9(r15)-|
D|-----------------------------------------------------------------------------------|
A|-----------------------------------------------------------------------------------|
E|-----------------------------------------------------------------------------------|

(Guitar 2)
[Isaac]
e|------------------7--7--7--------------------------|
B|-6--6--6--6--6--6---------5--5--5--5--5--5-5--5--5-|
G|---------------------------------------------------| (x3)
D|---------------------------------------------------|
A|---------------------------------------------------|
E|---------------------------------------------------|

e|------------------7--7--7---------------------|
B|-6--6--6--6--6--6---------5--5--5--5---5(r15)-|
G|----------------------------------------------|
D|----------------------------------------------|
A|----------------------------------------------|
E|----------------------------------------------|


[Verse]


(Guitar 1)
[Nachito]
e|---------------------------------------------------------------------|
B|-------------------8-x-8-x-6/8\6-5---x-x-8-x-x-8-x-x-6-x-6-x-6/8\6/8-|
G|-x-x-10-x-x-10-x-x-9-x-9-x-7/9\7-0---x-x-9-x-x-9-x-x-7-x-7-x-7/9\7/9-| (x4)
D|---------------------------------------------------------------------|
A|---------------------------------------------------------------------|
E|---------------------------------------------------------------------|

(Guitar 2)
[Isaac]
e|----------------------------------------------------------|
B|----------------------------------------------------------|
G|---10----10------4----4--------5----5---------2----2------| (x4)
D|----------------------------------------------------------|
A|----------------------------------------------------------|
E|-10--10-10------3--3-3------3/5--5-5------(0)1--1-1----1/-|


[Instrumental Riff]


(Guitar 1)
[Nachito]
e|-----------------------------------------------------------------------------------|
B|----12-12-10-10-12-12----12-12-10-10-12-12---12-12-10-10-12-12---12-12-10-10-12-12-|
G|-10-------------------10-------------------9-------------------9-------------------| (x3)
D|-----------------------------------------------------------------------------------|
A|-----------------------------------------------------------------------------------|
E|-----------------------------------------------------------------------------------|

e|-----------------------------------------------------------------------------------|
B|-----12-12--10-10--12-12------12-12--10-10--12-12-----12-12--10-10--12-12----------|
G|-10-----------------------10-----------------------9------------------------9(r15)-|
D|-----------------------------------------------------------------------------------|
A|-----------------------------------------------------------------------------------|
E|-----------------------------------------------------------------------------------|

(Guitar 2)
[Isaac]
e|------------------7--7--7--------------------------|
B|-6--6--6--6--6--6---------5--5--5--5--5--5-5--5--5-|
G|---------------------------------------------------| (x3)
D|---------------------------------------------------|
A|---------------------------------------------------|
E|---------------------------------------------------|

e|------------------7--7--7---------------------|
B|-6--6--6--6--6--6---------5--5--5--5---5(r15)-|
G|----------------------------------------------|
D|----------------------------------------------|
A|----------------------------------------------|
E|----------------------------------------------|


[Verse]


(Guitar 1)
[Nachito]
e|---------------------------------------------------------------------|
B|-------------------8-x-8-x-6/8\6-5---x-x-8-x-x-8-x-x-6-x-6-x-6/8\6/8-|
G|-x-x-10-x-x-10-x-x-9-x-9-x-7/9\7-0---x-x-9-x-x-9-x-x-7-x-7-x-7/9\7/9-| (x4)
D|---------------------------------------------------------------------|
A|---------------------------------------------------------------------|
E|---------------------------------------------------------------------|

(Guitar 2)
[Isaac]
e|----------------------------------------------------------|
B|----------------------------------------------------------|
G|---10----10------4----4--------5----5---------2----2------| (x4)
D|----------------------------------------------------------|
A|----------------------------------------------------------|
E|-10--10-10------3--3-3------3/5--5-5------(0)1--1-1----1/-|


[Bridge]


(Guitar 2)
[Isaac]
e|----------------------------------------------------------|
B|----------------------------------------------------------|
G|---10----10------4----4--------5----5---------2----2------| (x4)
D|----------------------------------------------------------|
A|----------------------------------------------------------|
E|-10--10-10------3--3-3------3/5--5-5------(0)1--1-1----1/-|


[Solo]


(Guitar 1)
[Nachito]
e|------------------------------------------------------------------------------------------------|
B|------------------------------------------------------------------------------------------------|
G|-5--5-5--5--5(h7)-7-7----5-7-5-7/9-7--5-7-5-7/9-7----10---9-7h9p7--7h9h10-9-7-9----7\5----5-5-5-|
D|------------------------------------------------------------------------------------------------|
A|------------------------------------------------------------------------------------------------|
E|------------------------------------------------------------------------------------------------|

e|--------------------------------------------------------------------------------------------|
B|--------------------------------------------------------------------------------------------|
G|-5/9\4----4-4\2-2-4-5-7-5-7/9-7\5-5----5---5/9\4-4----5-7/9-7\5-5---5-7/9-7\5-5---5-7-9-7-5-|
D|--------------------------------------------------------------------------------------------|
A|--------------------------------------------------------------------------------------------|
E|--------------------------------------------------------------------------------------------|

(Guitar 2)
[Isaac]
e|----------------------------------------------------------|
B|----------------------------------------------------------|
G|---10----10------4----4--------5----5---------2----2------| (x4)
D|----------------------------------------------------------|
A|----------------------------------------------------------|
E|-10--10-10------3--3-3------3/5--5-5------(0)1--1-1----1/-|


************************************

| r    Repeat Note
| x    Dead note
| /    Slide up
| \    Slide down
| (n)  Ghost note
| h    Hammer-on
| p    Pull-off  

************************************
Добавлено: 18.10.2017
Вам также может быть интересно:
Другие материалы по этой песне:
  • Аккорды и текст

Страница создана 18.10.2017
http://primanota.ru/audiots/calling-you-all-night-chords.htm
Привет, Гость.
Предлагаем пройти революционный курс по гитаре.
Подарок от PrimaNota.Ru, забирай!