PrimaNota.ru - самый крупный в мире бесплатный архив песенных текстов, аккордов, табулатур и нот


Audiotopsy - The Calling - таба, видео

Регистрация Запомнить меня
Войти через:  Facebook Google Twitter Vk Yandex Mail.ru

Audiotopsy - The Calling - таба, видео

Печатать
Просмотров: 99
Уроки эстрадного вокала в Санкт-Петербурге
Audiotopsy: The Calling

Transcribed by: mysticguitar77

Facebook: https://www.facebook.com/MysticGuitar77
YouTube Channel: https://www.youtube.com/user/MysticGuitar77

Date last modified: September 22, 2015

Tuning: Drop C (C,G,C,F,A,D)

Riff 1 - Guitar 1 (clean)
D|---------------------0-------------------------0-----|
A|-----------------------6-------------------------6---|
F|---5h7---7p5---5h7-------7---5h7---7p5---5h7-------7-|
C|-0-----0-----0-----0-------0-----0-----0-----0-------|
G|-----------------------------------------------------|
C|-----------------------------------------------------|

D|------------------------------------------|
A|-------0---------0------------------------|
F|---5-----5---5-----5-----0--------0-----0-|
C|-----------------------0---0----0-----0---|
G|-3---3-----3---3--------------------------|
C|---------------------5--------5-----3-----|

Riff 1 - Guitar 2 (distortion)
D|-----------------------------------------------|
A|-----------------------------------------------|
F|-------------------------5~--------------------|
C|-0~---------0-0----------5~--------5-----5---3-|
G|-0~---------0-0----------3~--------5-----5---3-|
C|-0~---------0-0--------------------5-----5---3-|
              * *

D|----------------------------------------------------|
A|----------------------------------------------------|
F|-------------------------5-5------------------------|
C|-0~---------0-0----------5-5-------5-----5---3---0~-|
G|-0~---------0-0----------3-3-------5-----5---3---0~-|
C|-0~---------0-0--------------------5-----5---3---0~-|
              * *

Riff 2 - Guitar 1 (clean)   "This is the calling..."
D|-------------------------------|
A|-------------------------------|
F|-------------------------------|
C|-------------------------------| x3
G|---3h5---5p3---3h5---5p3---3h5-|
C|-0-----0-----0-----0-----0-----|
   * * * * * * * * * * * * * * *

D|---------------------------|
A|---------------------------|
F|-------------------0-----0-|
C|-----------------0-----0---|
G|---3h5---5p3---------------|
C|-0-----0-----0-5-----3-----|
   * * * * * * *

Play Riff 2 x4   "No one, nothing go on..."

Riff 3 - Guitar 2 (clean, enters after Riff 2 gets played twice)
D|---------------------------|
A|---------------------------|
F|---7b8r7-7---7b8r7-7---5h7-|
C|-0---------0---------0-----| x3
G|---------------------------|
C|---------------------------|

D|-------------------------|
A|-------------------------|
F|---7b8r7-7---10-10-10-10-|
C|-0---------0-0--0--0--0--|
G|-------------------------|
C|-------------------------|

Play Riff 3 x2   "No one, nothing go on..."

Riff 4 - Both Guitars   "You'll burn in flames..."
D|----------------------------------|
A|----------------------------------|
F|-------5--------------------------|
C|-0--3--5--6-5-3-5--5--6-5-3-5-0-3-|
G|-0--3--3--6-5-3-5--5--6-5-3-5-0-3-|
C|-0--3-----6-5-3-5--5--6-5-3-5-0-3-|

Play Riff 4 x2   "...comes over and over again..."

Play Riff 2 x4   (Guitar 1, distorted this time)
Play Riff 3 x2   (Guitar 2, distorted this time)
Play Riff 4 x2   "You'll burn in flames..."

Riff 4a   "You'll burn in flames..."
D|-------------------------------|
A|-------------------------------|
F|-------5-----------------------|
C|-0--3--5--0--5--5--6-5-3-5-0-3-|
G|-0--3--3--0--5--5--6-5-3-5-0-3-|
C|-0--3-----0--5--5--6-5-3-5-0-3-|

Play Riff 4 x1   "...comes over and over again..."

Riff 5   "Again..."
D|-------------------------------------------------------------------|
A|-------------------------------------------------------------------|
F|-------------------------------------------------------------------|
C|-8-8-8-8-8-8-8-8-8-8-8-8-8\3-3-3-3-7-7-7-7-7-7-7-7-7-7-7-7-7-0-0-0-|
G|-8-8-8-8-8-8-8-8-8-8-8-8-8\3-3-3-3-7-7-7-7-7-7-7-7-7-7-7-7-7-0-0-0-|
C|-8-8-8-8-8-8-8-8-8-8-8-8-8\3-3-3-3-7-7-7-7-7-7-7-7-7-7-7-7-7-0-0-0-|

D|-------------------------------------------------------------------|
A|-------------------------------------------------------------------|
F|-------------------------------------------------------------------|
C|-3-3-3-3-3-3-3-3-3-3-3-3-3/5-5-5-5-2-2-2-2-2-2-2-2-2-2-2-2-2-0-0-0-|
G|-3-3-3-3-3-3-3-3-3-3-3-3-3/5-5-5-5-2-2-2-2-2-2-2-2-2-2-2-2-2-0-0-0-|
C|-3-3-3-3-3-3-3-3-3-3-3-3-3/5-5-5-5-2-2-2-2-2-2-2-2-2-2-2-2-2-0-0-0-|

D|-------------------------------------------------------------------|
A|-------------------------------------------------------------------|
F|-------------------------------------------------------------------|
C|-8-8-8-8-8-8-8-8-8-8-8-8-8\3-3-3-3-7-7-7-7-7-7-7-7-7-7-7-7-7-0-0-0-|
G|-8-8-8-8-8-8-8-8-8-8-8-8-8\3-3-3-3-7-7-7-7-7-7-7-7-7-7-7-7-7-0-0-0-|
C|-8-8-8-8-8-8-8-8-8-8-8-8-8\3-3-3-3-7-7-7-7-7-7-7-7-7-7-7-7-7-0-0-0-|

D|-------------------------------------------------------------------|
A|-------------------------------------------------------------------|
F|-------------------------------------------------------------------|
C|-3-3-3-3-3-3-3-3-3-3-3-3-3/5-5-5-5-7-7-7-7-7-7-7-7-7-7-7-7-7-0-0-0-|
G|-3-3-3-3-3-3-3-3-3-3-3-3-3/5-5-5-5-7-7-7-7-7-7-7-7-7-7-7-7-7-0-0-0-|
C|-3-3-3-3-3-3-3-3-3-3-3-3-3/5-5-5-5-7-7-7-7-7-7-7-7-7-7-7-7-7-0-0-0-|

Riff 6
D|--------------------------------------------------------------------------------|
A|--------------------------------------------------------------------------------|
F|--------------------------------------------------------------------------------|
C|-10-10-10-10-10-10-10-10-10-10-10-10-10\5-5-5-5-9-9-9-9-9-9-9-9-9-9-9-9-9-0-0-0-|
G|-8--8--8--8--8--8--8--8--8--8--8--8--8\\3-3-3-3-7-7-7-7-7-7-7-7-7-7-7-7-7-0-0-0-|
C|-8--8--8--8--8--8--8--8--8--8--8--8--8\\3-3-3-3-7-7-7-7-7-7-7-7-7-7-7-7-7-0-0-0-|

D|-------------------------------------------------------------------|
A|-------------------------------------------------------------------|
F|-------------------------------------------------------------------|
C|-5-5-5-5-5-5-5-5-5-5-5-5-5/7-7-7-7-4-4-4-4-4-4-4-4-4-4-4-4-4-0-0-0-|
G|-3-3-3-3-3-3-3-3-3-3-3-3-3/5-5-5-5-2-2-2-2-2-2-2-2-2-2-2-2-2-0-0-0-|
C|-3-3-3-3-3-3-3-3-3-3-3-3-3/5-5-5-5-2-2-2-2-2-2-2-2-2-2-2-2-2-0-0-0-|

D|--------------------------------------------------------------------------------|
A|--------------------------------------------------------------------------------|
F|--------------------------------------------------------------------------------|
C|-10-10-10-10-10-10-10-10-10-10-10-10-10\5-5-5-5-9-9-9-9-9-9-9-9-9-9-9-9-9-0-0-0-|
G|-8--8--8--8--8--8--8--8--8--8--8--8--8\\3-3-3-3-7-7-7-7-7-7-7-7-7-7-7-7-7-0-0-0-|
C|-8--8--8--8--8--8--8--8--8--8--8--8--8\\3-3-3-3-7-7-7-7-7-7-7-7-7-7-7-7-7-0-0-0-|

D|-------------------------------------------------------------------|
A|-------------------------------------------------------------------|
F|-------------------------------------------------------------------|
C|-5-5-5-5-5-5-5-5-5-5-5-5-5/7-7-7-7-9-9-9-9-9-9-9-9-9-9-9-9-9-0-0-0-|
G|-3-3-3-3-3-3-3-3-3-3-3-3-3/5-5-5-5-7-7-7-7-7-7-7-7-7-7-7-7-7-0-0-0-|
C|-3-3-3-3-3-3-3-3-3-3-3-3-3/5-5-5-5-7-7-7-7-7-7-7-7-7-7-7-7-7-0-0-0-|

Fill 1 - Guitar 1
D|-------------------------------|
A|-------------------------------|
F|---5h7---7p5---5h7---7p5---5h7-|
C|-0-----0-----0-----0-----0-----| x3
G|-------------------------------|
C|-------------------------------|

D|---------------|
A|---------------|
F|---5h7---7p5---|
C|-0-----0-----0-|
G|---------------|
C|---------------|

Fill 1 - Guitar 2
D|-------------------------|
A|-------------------------|
F|-------------------------|
C|-0---------0-0---------0-|
G|-0---------0-0---------0-|
C|-0---------0-0---------0-|

Play Riff 4  x2   "You'll burn in flames..."
Play Riff 4a x1   
Play Riff 4 x1    "...comes over and over again..."

Ending
D|------------------------------------|
A|------------------------------------|
F|------------------------------------|
C|-0~---------------------------------|
G|-0~---------------------------------|
C|-0~---------------------------------|

Enjoy!!

Добавлено: 07.06.2016
Другие материалы по этой песне:
  • Аккорды и текст

Страница создана 07.06.2016
http://primanota.ru/audiotopsy/calling-chords.htm
Привет, Гость.
Предлагаем пройти революционный курс по гитаре.
Подарок от PrimaNota.Ru, забирай!