PrimaNota.ru - самый крупный в мире бесплатный архив песенных текстов, аккордов, табулатур и нот


Audioslave - Out Of Exile - текст песни, таба, бас-таба, видео

Регистрация Запомнить меня
Войти через:  Facebook Google Twitter Vk Yandex Mail.ru

Audioslave - Out Of Exile - текст песни, таба, бас-таба, видео

Печатать
Просмотров: 311
-------------------------------------------------------------------------------
			     Out Of Exile - Audioslave
-------------------------------------------------------------------------------
Tabbed by: Bas	
Email: b_vice@hotmail.com

I've now updated the tab with solo and a change in the main riff. It's now 100% complete... ENJOY!


Tuning: DADGBe

Intro

 Guitar 1
e|--------------------1------------------------------------------------------|
B|-----------1------3--------3-----------------------------------------------|
G|--2------2---------------4-------------------------------------------------| 2x
D|3--------------------------------------------------------------------------|
A|---------------------------------------------------------------------------|
D|---------------------------------------------------------------------------|

 Bass arranged for Guitar:
In the background of the intro there is also another sound. It sounds to me like
some muted strings with some wah, strummed in the rythm of the 
drums. It should be played something like this :
	
e|-----------------------------------------------------------------x-x-x-x-x-|
B|-------------------------------------------------x-x-x-x-x-x-x---x-x-x-x-x-|
G|--------------------------------------x-x-x-x-x--x-x-x-x-x-x-x---x-x-x-x-x-|
D|----------------------x-x----x-x-x-x--x-x-x-x-x--x-x-x-x-x-x-x---x-x-x-x-x-|
A|x-x-x-x----x-x-x-x-x--x-x----x-x-x-x--x-x-x-x-x--x-x-x-x-x-x-x---x-x-x-x-x-|
D|x-x-x-x----x-x-x-x-x--x-x----x-x-x-x--x-x-x-x-x--x-x-x-x-x-x-x---x-x-x-x-x-|
 [While playing, move your muting hand upwards in the direction of the pickups]

e|--x-x---x-x-x-x--x-x-x-x-x---x-x-x-x---------------------------------------|
B|--x-x---x-x-x-x--x-x-x-x-x---x-x-x-x---------------------------------------|
G|--x-x---x-x-x-x--x-x-x-x-x---x-x-x-x---------------------------------------|
D|--x-x---x-x-x-x--x-x-x-x-x---x-x-x-x---------------------------------------|
A|--x-x---x-x-x-x--x-x-x-x-x---x-x-x-x---------------------------------------|
D|--x-x---x-x-x-x--x-x-x-x-x---x-x-x-x---------------------------------------|
 [While playing, move your muting hand upwards in the direction of the pickups]

e|-----------------------------------------------------------------x-x-x-x-x-|
B|-------------------------------------------------x-x-x-x-x-x-x---x-x-x-x-x-|
G|--------------------------------------x-x-x-x-x--x-x-x-x-x-x-x---x-x-x-x-x-|
D|----------------------x-x----x-x-x-x--x-x-x-x-x--x-x-x-x-x-x-x---x-x-x-x-x-|
A|x-x-x-x----x-x-x-x-x--x-x----x-x-x-x--x-x-x-x-x--x-x-x-x-x-x-x---x-x-x-x-x-|
D|x-x-x-x----x-x-x-x-x--x-x----x-x-x-x--x-x-x-x-x--x-x-x-x-x-x-x---x-x-x-x-x-|
 [While playing, move your muting hand upwards in the direction of the pickups]

e|--x-x---x-x-x-x--x-x-x-x-x---x-x-x-x---------------------------------------|
B|--x-x---x-x-x-x--x-x-x-x-x---x-x-x-x---------------------------------------|
G|--x-x---x-x-x-x--x-x-x-x-x---x-x-x-x---------------------------------------|
D|--x-x---x-x-x-x--x-x-x-x-x---x-x-x-x---------------------------------------|
A|--x-x---x-x-x-x--x-x-x-x-x---x-x-x-x---------------------------------------|
D|--x-x---x-x-x-x--x-x-x-x-x---x-x-x-x---------------------------------------|
 [While playing, move your muting hand upwards in the direction of the pickups]

			    			     *	    **	
e|------------------------------------------------[------]-[-1-]-------------|
B|------------------------------------------------[------]-[-1-]-------------|
G|------------------------------------------------[------]-[-0-]-------------| 4x
D|---------------------3--------------------------[------]-[-0-]-------------|
A|12\--3h5-5-5--xx---------3---3---3-5------------[-/12\-]-[---]-------------|
D|12\-----------xx-3----3---5----3-----0-3-5-7-0--[-/12\-]-[---]-------------|
*  = play 2nd time
** = play 3rd time


Verse

e|---------------------------------------------------------------------------|
B|-3...(14x)--10...(14x)--8...(14x)--6...(14x)--5-5-5-5----------------------|
G|---------------------------------------------------------------------------| 3x
D|---------------------------------------------------------------------------|
A|---------------------------------------------------------------------------|
D|---------------------------------------------------------------------------|

then:
e|---------------------------------------------------------------------------|
B|-3...(14x)--10...(14x)--8...(14x)--3...(10x)-------------------------------|
G|---------------------------------------------------------------------------| 1x
D|---------------------------------------------------------------------------|
A|---------------------------------------------------------------------------|
D|---------------------------------------------------------------------------|

Chorus

e|---------------------------------------------------------------------------|
B|---------------------------------------------------------------------------|
G|---------------------------------------------------------------------------|
D|---------------------3-----------------------------------------------------|
A|12\--3h5-5-5--xx--------3--3---3-5--------------15\------------------------|
D|12\-----------xx-3----3--5---3-------0-3-5-7-0--15\------------------------|

e|---------------------------------------------------------------------------|
B|---------------------------------------------------------------------------|
G|---------------------------------------------------------------------------|
D|------------------3-------x-x-x--x---x-x-x--------------------3------------|
A|--3h5-5-5--xx---------3---x-x-x--x---x-x-x----------------3-5--------------|
D|-----------xx-3----3---5--x-x-x--x---x-x-x--------0-3-5-7------------------|

e|---------------------------------------------------------------------------|
B|---------------------------------------------------------------------------|
G|---------------------------------------------------------------------------|
D|---------------------3-----------------------------------------------------|
A|12\--3h5-5-5--xx--------3--3---3-5--------------15\------------------------|
D|12\-----------xx-3----3--5---3-------0-3-5-7-0--15\------------------------|

e|---------------------------------------------------------------------------|
B|---------------------------------------------------------------------------|
G|---------------------------------------------------------------------------|
D|------------------3-------x-x-x--x---x-x-x--------------------3------------|
A|--3h5-5-5--xx---------3---x-x-x--x---x-x-x----------------3-5--------------|
D|-----------xx-3----3---5--x-x-x--x---x-x-x--------0-3-5-7------------------|


Verse

e|---------------------------------------------------------------------------|
B|-3...(14x)--10...(14x)--8...(14x)--6...(14x)--5-5-5-5----------------------|
G|---------------------------------------------------------------------------| 3x
D|---------------------------------------------------------------------------|
A|---------------------------------------------------------------------------|
D|---------------------------------------------------------------------------|

then:
e|---------------------------------------------------------------------------|
B|-3...(14x)--10...(14x)--8...(14x)--3...(10x)-------------------------------|
G|---------------------------------------------------------------------------| 1x
D|---------------------------------------------------------------------------|
A|---------------------------------------------------------------------------|
D|---------------------------------------------------------------------------|




Chorus

e|---------------------------------------------------------------------------|
B|---------------------------------------------------------------------------|
G|---------------------------------------------------------------------------|
D|---------------------3-----------------------------------------------------|
A|12\--3h5-5-5--xx--------3--3---3-5--------------15\------------------------|
D|12\-----------xx-3----3--5---3-------0-3-5-7-0--15\------------------------|

e|---------------------------------------------------------------------------|
B|---------------------------------------------------------------------------|
G|---------------------------------------------------------------------------|
D|------------------3-------x-x-x--x---x-x-x--------------------3------------|
A|--3h5-5-5--xx---------3---x-x-x--x---x-x-x----------------3-5--------------|
D|-----------xx-3----3---5--x-x-x--x---x-x-x--------0-3-5-7------------------|

e|---------------------------------------------------------------------------|
B|---------------------------------------------------------------------------|
G|---------------------------------------------------------------------------|
D|---------------------3-----------------------------------------------------|
A|12\--3h5-5-5--xx--------3--3---3-5--------------15\------------------------|
D|12\-----------xx-3----3--5---3--------0-3-5-7-0--15\------------------------|

e|---------------------------------------------------------------------------|
B|---------------------------------------------------------------------------|
G|---------------------------------------------------------------------------|
D|------------------3-------x-x-x--x---x-x-x--------------------3------------|
A|--3h5-5-5--xx---------3---x-x-x--x---x-x-x----------------3-5--------------|
D|-----------xx-3----3---5--x-x-x--x---x-x-x--------0-3-5-7------------------|


Verse

e|---------------------------------------------------------------------------|
B|-3...(14x)--10...(14x)--8...(14x)--6...(14x)--5-5-5-5----------------------|
G|---------------------------------------------------------------------------| 3x
D|---------------------------------------------------------------------------|
A|---------------------------------------------------------------------------|
D|---------------------------------------------------------------------------|

then:
e|---------------------------------------------------------------------------|
B|-3...(14x)--10...(14x)--8...(14x)--3...(10x)-------------------------------|
G|---------------------------------------------------------------------------| 1x
D|---------------------------------------------------------------------------|
A|---------------------------------------------------------------------------|
D|---------------------------------------------------------------------------|


Chorus

e|---------------------------------------------------------------------------|
B|---------------------------------------------------------------------------|
G|---------------------------------------------------------------------------|
D|---------------------3-----------------------------------------------------|
A|12\--3h5-5-5--xx--------3--3---3-5--------------15\------------------------|
D|12\-----------xx-3----3--5---3-------0-3-5-7-0--15\------------------------|

e|---------------------------------------------------------------------------|
B|---------------------------------------------------------------------------|
G|---------------------------------------------------------------------------|
D|------------------3-------x-x-x--x---x-x-x--------------------3------------|
A|--3h5-5-5--xx---------3---x-x-x--x---x-x-x----------------3-5--------------|
D|-----------xx-3----3---5--x-x-x--x---x-x-x--------0-3-5-7------------------|

e|---------------------------------------------------------------------------|
B|---------------------------------------------------------------------------|
G|---------------------------------------------------------------------------|
D|---------------------3-----------------------------------------------------|
A|12\--3h5-5-5--xx--------3--3---3-5--------------15\------------------------|
D|12\-----------xx-3----3--5---3-------0-3-5-7-0--15\------------------------|

e|---------------------------------------------------------------------------|
B|---------------------------------------------------------------------------|
G|---------------------------------------------------------------------------|
D|------------------3-------x-x-x--x---x-x-x--------------------3------------|
A|--3h5-5-5--xx---------3---x-x-x--x---x-x-x----------------3-5--------------|
D|-----------xx-3----3---5--x-x-x--x---x-x-x--------0-3-5-7------------------|


Solo

about the solo:

in the solo part the ~ above the notes is not vibration but whammy bar 
flutter (can probably only be done with floyd rose style bars): 
it's just 'fluttering' or moving up and down your whammy bar very fast...
the _ sign means you've got to do a dive bomb (with whammy bar or pedal)
the > sign means you've got to do a whammy bar dip (or w.peddal little bit
forward). If the _ or > got a ~ sign behind it, it means that you've got to
do the first thing and then keep it (for example) in 'dive bomb mode' and
flutter around there...

note that when I use ~ behind the notes it's just vibration.
further there's not delay used, it's pure shredding madness ;)
			~   ~   ~   ~
e|10---10--10--10------------------------------------------13----------13----|
B|13b--13b-13b-13b------15--13--15--13---13----13-15p13-------15-13-15-------|
G|------------------------------------------14----------14----------------14-|
D|---------------------------------------------------------------------------|
A|---------------------------------------------------------------------------|
D|---------------------------------------------------------------------------|

e|---------------13----------------------12-13-12----------------------12-13-|
B|-13--13-15p13-----15-13-15-13----13-15----------15-13-12----12-13-15-------|
G|---14--------14---------------14-------------------------14----------------|
D|---------------------------------------------------------------------------|
A|---------------------------------------------------------------------------|
D|---------------------------------------------------------------------------|

e|13----------------------12-15-12-------------------------------------------|
B|---15-13-12----12-14-15----------15-15-12----12-15-15-15-15-12----12-15-15-|
G|------------14----------------------------14-------------------14----------|
D|---------------------------------------------------------------------------|
A|---------------------------------------------------------------------------|
D|---------------------------------------------------------------------------|
							    ~      >      ~
e|------------------------------------12-15-12-------15\----15~----15-----15~|
B|15-12----12-15-15-15-12----12-15-15----------15-12-------------------------|
G|------14----------------15-------------------------------------------------|
D|---------------------------------------------------------------------------|
A|---------------------------------------------------------------------------|
D|---------------------------------------------------------------------------|
   ~   ~   ~   ~  ~   ~    ~   ~   ~   ~   ~   ~  ~   ~    ~   ~  ~   _~
e|-13--15--13--15/19--18~----------------------------------15~/16-16---------|
B|-------------------------15--13--15--13--15--13/18--17~--------------------|
G|---------------------------------------------------------------------------|
D|---------------------------------------------------------------------------|
A|---------------------------------------------------------------------------|
D|--------------------------------------------------------------------0------|


Breakdown

Guitar 1
e|--------------------1------------------------------------------------------|
B|-----------1------3--------3-----------------------------------------------|
G|--2------2---------------4-------------------------------------------------| 2x
D|3--------------------------------------------------------------------------|
A|---------------------------------------------------------------------------|
D|---------------------------------------------------------------------------|

Guitar 2

Same as the intro (again with those effects and stuff...):
e|-----------------------------------------------------------------x-x-x-x-x-|
B|-------------------------------------------------x-x-x-x-x-x-x---x-x-x-x-x-|
G|--------------------------------------x-x-x-x-x--x-x-x-x-x-x-x---x-x-x-x-x-|
D|----------------------x-x----x-x-x-x--x-x-x-x-x--x-x-x-x-x-x-x---x-x-x-x-x-|
A|x-x-x-x----x-x-x-x-x--x-x----x-x-x-x--x-x-x-x-x--x-x-x-x-x-x-x---x-x-x-x-x-|
D|x-x-x-x----x-x-x-x-x--x-x----x-x-x-x--x-x-x-x-x--x-x-x-x-x-x-x---x-x-x-x-x-|
 [While playing, move your muting hand upwards in the direction of the pickups]

e|--x-x---x-x-x-x--x-x-x-x-x---x-x-x-x---------------------------------------|
B|--x-x---x-x-x-x--x-x-x-x-x---x-x-x-x---------------------------------------|
G|--x-x---x-x-x-x--x-x-x-x-x---x-x-x-x---------------------------------------|
D|--x-x---x-x-x-x--x-x-x-x-x---x-x-x-x---------------------------------------|
A|--x-x---x-x-x-x--x-x-x-x-x---x-x-x-x---------------------------------------|
D|--x-x---x-x-x-x--x-x-x-x-x---x-x-x-x---------------------------------------|
 [While playing, move your muting hand upwards in the direction of the pickups]

e|-----------------------------------------------------------------x-x-x-x-x-|
B|-------------------------------------------------x-x-x-x-x-x-x---x-x-x-x-x-|
G|--------------------------------------x-x-x-x-x--x-x-x-x-x-x-x---x-x-x-x-x-|
D|----------------------x-x----x-x-x-x--x-x-x-x-x--x-x-x-x-x-x-x---x-x-x-x-x-|
A|x-x-x-x----x-x-x-x-x--x-x----x-x-x-x--x-x-x-x-x--x-x-x-x-x-x-x---x-x-x-x-x-|
D|x-x-x-x----x-x-x-x-x--x-x----x-x-x-x--x-x-x-x-x--x-x-x-x-x-x-x---x-x-x-x-x-|
 [While playing, move your muting hand upwards in the direction of the pickups]

e|--x-x---x-x-x-x--x-x-x-x-x---x-x-x-x---------------------------------------|
B|--x-x---x-x-x-x--x-x-x-x-x---x-x-x-x---------------------------------------|
G|--x-x---x-x-x-x--x-x-x-x-x---x-x-x-x---------------------------------------|
D|--x-x---x-x-x-x--x-x-x-x-x---x-x-x-x---------------------------------------|
A|--x-x---x-x-x-x--x-x-x-x-x---x-x-x-x---------------------------------------|
D|--x-x---x-x-x-x--x-x-x-x-x---x-x-x-x---------------------------------------|
 [While playing, move your muting hand upwards in the direction of the pickups]

Chorus

e|---------------------------------------------------------------------------|
B|---------------------------------------------------------------------------|
G|---------------------------------------------------------------------------|
D|---------------------3-----------------------------------------------------|
A|12\--3h5-5-5--xx--------3--3---3-5--------------15\------------------------|
D|12\-----------xx-3----3--5---3-------0-3-5-7-0--15\------------------------|

e|---------------------------------------------------------------------------|
B|---------------------------------------------------------------------------|
G|---------------------------------------------------------------------------|
D|------------------3-------x-x-x--x---x-x-x--------------------3------------|
A|--3h5-5-5--xx---------3---x-x-x--x---x-x-x----------------3-5--------------|
D|-----------xx-3----3---5--x-x-x--x---x-x-x--------0-3-5-7------------------|

e|---------------------------------------------------------------------------|
B|---------------------------------------------------------------------------|
G|---------------------------------------------------------------------------|
D|---------------------3-----------------------------------------------------|
A|12\--3h5-5-5--xx--------3--3---3-5--------------15\------------------------|
D|12\-----------xx-3----3--5---3-------0-3-5-7-0--15\------------------------|

e|---------------------------------------------------------------------------|
B|---------------------------------------------------------------------------|
G|---------------------------------------------------------------------------|
D|------------------3-------x-x-x--x---x-x-x--------------------3------------|
A|--3h5-5-5--xx---------3---x-x-x--x---x-x-x----------------3-5--------------|
D|-----------xx-3----3---5--x-x-x--x---x-x-x--------0-3-5-7------------------|


Outro
e|--------------------------[--------------------------]-----------------------|
B|--------------------------[--------------------------]-----------------------|
G|--------------------------[--------------------------]-----------------------|
D|------------------3-------[x-x-x-x-x---x-x-x-x-x--x-x]-----------------------|
A|--3h5-5-5--xx---------3---[x-x-x-x-x---x-x-x-x-x--x-x]-----------------------|
D|-----------xx-3----3---5--[x-x-x-x-x---x-x-x-x-x--x-x]-----------------------|
			    [ Repeat 4 times...	       ]
| /  slide up
| \  slide down
| h  hammer-on
| p  pull-off
| ~  vibrato
| +  harmonic
| x  Mute note
|


please mail any comments or corrections to b_vice@hotmail.com
===============================================================================
Добавлено: 15.05.2012
Другие материалы по этой песне:

Страница создана 03.03.2012
http://primanota.ru/audioslave/out-of-exile-chords.htm
Привет, Гость.
Предлагаем пройти революционный курс по гитаре.
Подарок от PrimaNota.Ru, забирай!