PrimaNota.ru - самый крупный в мире бесплатный архив песенных текстов, аккордов, табулатур и нот


Audioslave - Like a stone1 - бас-таба, видео

Регистрация Запомнить меня
Войти через:  Facebook Google Twitter Vk Yandex Mail.ru

Audioslave - Like a stone1 - бас-таба, видео

Печатать
Просмотров: 81


AUDIOSLAVE
LIKE A STONE
TABBED BY HUERTA (rat@rattenstein.zzn.com)

INTRO 
STARTS AT 00:09

G|-----------------------------------|
D|-----------------------------------|
A|-----5-5-----5-5-----5-5-----8-5---|
E|-3-------3-------3-------3-------3-|
   ^ 
   ONLY PLAY THE FIRST 3 AT THE BEGINNING.

VERSE 
SAME AS INTRO 


CHORUS
FIRST PART

G|---------------------------------|
D|---------------------------------|
A|----5-8--8-10-5----5-8-8-8-12-10-|
E|-3--------------3----------------|

SECOND PART

G|--------------------------------------|
D|--------------------------------------|
A|-6--8-5--8-10-5-6--8-5~----5-------5--|
E|-----------------------------3-3-3----|

SOLO 
G|---------------------------------------------|
D|---------------------------------------------|
A|---------------8--------------------8-12-10/-|
E|-3--5-6--6-6-6---5-3--3--5-6--6-6-6----------|

MAKE A SLIDE FROM 10 TO 6 ON A STRING

G|-----------------------------------------------|
D|-----------------------------------------------|
A|-/66666666----------88888888------------6666666|
E|----------33333333------------33333333---------|

G|-----------------------------------------------|
D|-----------------------------------------------|
A|-----------5555555555-6~-----------------------|
E|-33333333--------------------------------------|

BRIDGE

G|-----------------------------------------------|
D|-----------------------------------------------|
A|-----------5--5----------------5555555555555555|
E|-5--5-7--7------5--5--5-7--7-------------------|

END WITH CHORUS

Добавлено: 05.10.2013
Вам также может быть интересно:
Другие материалы по этой песне:
  • Аккорды и текст

Страница создана 05.10.2013
http://primanota.ru/audioslave/like-a-stone1-chords.htm
Привет, Гость.
Предлагаем пройти революционный курс по гитаре.
Подарок от PrimaNota.Ru, забирай!