PrimaNota.ru - самый крупный в мире бесплатный архив песенных текстов, аккордов, табулатур и нот


Audioslave - Like A Stone Live - таба, видео

Регистрация Запомнить меня
Войти через:  Facebook Google Twitter Vk Yandex Mail.ru

Audioslave - Like A Stone Live - таба, видео

Печатать
Просмотров: 72
Audioslave's-Like a stone                                      Tab by Corey  Bledsoe


Intro:
E:------------------------------------------------|
B:--------------------------------4---3-----------|
G:--3-------5-------------2--------(5)------------|
D:-----5-------3----0---------1-------------------|
A:------------------------------------------------|
E:------------------------------------------------| 2X

Verse:
E:------------------------------------------------|
B:--------------------------------4---3-----------|
G:--3-------5-------------2--------(5)------------|
D:-----5-------3----0---------1-------------------|
A:------------------------------------------------|
E:------------------------------------------------| 4X

Chorus:
E:---------------------------------------------|
B:---------------------------------------------|
G:---------------------------------------------|
D:----5-----8-----3-----5----------------------|
A:----5-----8-----3-----5----------------------|
E:----3-----6-----1-----3----------------------| 2X

E:-------------------------------------------------|
B:-------------------------------------------------|
G:-------------------------------------------------|
D:---8-----5-----3-----5-----8-----5-----7----7----|
A:---6-----5-----3-----5-----6-----5-----5----5----|
E:---6-----3-----1-----3-----6-----3-----5----5----|

Verse:
E:-------------------------------------------|
B:--------------------------------4---3------|
G:--3-------5-------------2--------(5)-------|
D:-----5-------3----0---------1--------------|
A:-------------------------------------------|
E:-------------------------------------------| 4X

Chorus:
E:----------------------------------------------|
B:----------------------------------------------|
G:----------------------------------------------|
D:----5-----8-----3-----5-----------------------|
A:----5-----8-----3-----5-----------------------|
E:----3-----6-----1-----3-----------------------| 2X

E:--------------------------------------------------------------|
B:--------------------------------------------------------------|
G:--------------------------------------------------------------|
D:---8-----5-----3-----5-----8-----5-----7-----7-----7----7-----|
A:---6-----5-----3-----5-----6-----5-----5-----5-----5----5-----|
E:---6-----3-----1-----3-----6-----3-----5-----5-----5----5-----|

Solo:
E:-----------------------------------------------------------------|
B:-----------------------------------------------------------------|
G:--12--14--15-----17--15--14--12-----12--14-10----15--17--19-(19)-|
D:-----------------------------------------------------------------|
A:-----------------------------------------------------------------|
E:-----------------------------------------------------------------|

E:--18-17----------18-17----------18-17-----------18-17------------|
B:---------18-15----------18-15-----------18-15-----------18-15----|
G:-----------------------------------------------------------------|
D:-----------------------------------------------------------------|
A:-----------------------------------------------------------------|
E:-----------------------------------------------------------------|

E:--------------------------------------17-18-17-18-17r-----------|
B:-------------------------18-20----------------------------------|
G:--12-14-15-17-19-20---------------------------------------------|
D:----------------------------------------------------------------|
A:----------------------------------------------------------------|
E:----------------------------------------------------------------|

Interlude
E:-------------------------------------------------------|
B:-------------------------------------------------------|
G:--8-8-8-8-8-8------------------------------------------|
D:--8-8-8-8-8-8--8-8-8-8-8-8--3-3-3-3-3-3--5-5-5-5-5-5---|
A:--6-6-6-6-6-6--8-8-8-8-8-8--3-3-3-3-3-3--5-5-5-5-5-5---|
E:--6-6-6-6-6-6--6-6-6-6-6-6--1-1-1-1-1-1--3-3-3-3-3-3---|

E:-------------------------------------------------------|
B:-------------------------------------------------------|
G:--8-8-8-8-8-8------------------------------------------|
D:--8-8-8-8-8-8--8-8-8-8-8-8--3-3-3-3-3-3--5-5-5-5-5-5---|
A:--6-6-6-6-6-6--8-8-8-8-8-8--3-3-3-3-3-3--5-5-5-5-5-5---|
E:--6-6-6-6-6-6--6-6-6-6-6-6--1-1-1-1-1-1--3-3-3-3-3-3---|

E:------------------------------------------------------|
B:------------------------------------------------------|
G:--8-8-8-8-8-8-----------------------------------------|
D:--8-8-8-8-8-8--8-8-8-8-8-8--3-3-3-3-3-3--5-5-5-5-5-5--|
A:--6-6-6-6-6-6--8-8-8-8-8-8--3-3-3-3-3-3--5-5-5-5-5-5--|
E:--6-6-6-6-6-6--6-6-6-6-6-6--1-1-1-1-1-1--3-3-3-3-3-3--|

E:-------------------------------------------------------------|
B:-------------------------------------------------------------|
G:--8-8-8-8-8-8------------------------------------------------|
D:--8-8-8-8-8-8--8-8-8-8-8-8--7-7-7-7-7-7-7-7-7-7-7-7-7-7-7-7--|
A:--6-6-6-6-6-6--8-8-8-8-8-8--5-5-5-5-5-5-5-5-5-5-5-5-5-5-5-5--|
E:--6-6-6-6-6-6--6-6-6-6-6-6--5-5-5-5-5-5-5-5-5-5-5-5-5-5-5-5—-|

Outro/Chorus:
E:---------------------------------------------------------|
B:---------------------------------------------------------|
G:---------------------------------------------------------|
D:----5-----8-----3-----5----------------------------------|
A:----5-----8-----3-----5----------------------------------|
E:----3-----6-----1-----3----------------------------------| 2X

E:------------------------------------------------------------------------------|
B:------------------------------------------------------------------------------|
G:------------------------------------------------------------------------------|
D:---8-----5-----3-----5-----8-----5-----7-----7-----7-----7-----8--------------|
A:---6-----5-----3-----5-----6-----5-----5-----5-----5-----5-----6- (Let Ring)--|
E:---6-----3-----1-----3-----6-----3-----5-----5-----5-----5-----6--------------|
Добавлено: 12.08.2013
Другие материалы по этой песне:

Страница создана 20.07.2012
http://primanota.ru/audioslave/like-a-stone-live-chords.htm
Привет, Гость.
Предлагаем пройти революционный курс по гитаре.
Подарок от PrimaNota.Ru, забирай!