PrimaNota.ru - самый крупный в мире бесплатный архив песенных текстов, аккордов, табулатур и нот


Audioslave - Jewel Of The Summertime - текст песни, таба, бас-таба, видео

Регистрация Запомнить меня
Войти через:  Facebook Google Twitter Vk Yandex Mail.ru

Audioslave - Jewel Of The Summertime - текст песни, таба, бас-таба, видео

Печатать
Просмотров: 354
Авторы музыки: Tom Morello, Tim Commerford, Brad Wilk, Chris Cornell
Авторы текста: Chris Cornell
                             JEWEL OF THE SUMMERTIME
                            As recorded by Audioslave
                        (From the 2007 Album REVELATIONS)

Words by Chris Cornell

Music by Audioslave

Gtr I (D A D G B E) - 'Gtr. 1 (dist.)'
Gtr II (D A D G B E) - 'Gtr. 2 (dist.)'
Gtr III (D A D G B E) - 'Gtr. 3 (dist.)'

 Intro
  Moderately Slow Q=82
 4/4
           Gtr I
  W          Q  S S E E S S S S S S   Q  S S E E S S S S S S
|----------|------------------------|------------------------|
|----------|------------------------|------------------------|
|----------|------------0-0-0-0-0-0-|------------0-0-0-0-0-0-|
|----------|----x-x-----3-3-3-3-3-3-|----x-x-----3-3-3-3-3-3-|
|----------|----x-x-----------------|----x-x-----------------|
|----------|-0--x-x-2-3-------------|-0--x-x-2-3-------------|


  Q  S S E E S S S S S S   Q  S S E E S S S S S S
|------------------------|------------------------||
|------------------------|------------------------||
|------------0-0-0-0-0-0-|------------0-0-0-0-0-0-||
|----x-x-----3-3-3-3-3-3-|----x-x-----3-3-3-3-3-3-||
|----x-x-----------------|----x-x-----------------||
|-0--x-x-2-3-------------|-0--x-x-2-3-------------||


   Verse
    Q  S S E E S S S S S S   Q  S S E E S S S S S S
||-------------------------|------------------------|
||o------------------------|------------------------|
||-------------0-0-0-0-0-0-|------------0-0-0-0-0-0-|
||-----x-x-----3-3-3-3-3-3-|----x-x-----3-3-3-3-3-3-|
||o----x-x-----------------|----x-x-----------------|
||--0--x-x-2-3-------------|-0--x-x-2-3-------------|


  Q  S S E E S S S S S S   Q  S S E E S S S S S S
|------------------------|------------------------|
|------------------------|------------------------|
|------------0-0-0-0-0-0-|------------0-0-0-0-0-0-|
|----x-x-----3-3-3-3-3-3-|----x-x-----3-3-3-3-3-3-|
|----x-x-----------------|----x-x-----------------|
|-0--x-x-2-3-------------|-0--x-x-2-3-------------|


  Q  S S E E S S S S S S   Q  S S E E S S S S S S
|------------------------|------------------------|
|------------------------|------------------------|
|------------0-0-0-0-0-0-|------------0-0-0-0-0-0-|
|----x-x-----3-3-3-3-3-3-|----x-x-----3-3-3-3-3-3-|
|----x-x-----------------|----x-x-----------------|
|-0--x-x-2-3-------------|-0--x-x-2-3-------------|


  Q  S S E E S S S S S S   Q  S S E E S S S S S S
|------------------------|------------------------|
|------------------------|------------------------|
|------------0-0-0-0-0-0-|------------0-0-0-0-0-0-|
|----x-x-----3-3-3-3-3-3-|----x-x-----3-3-3-3-3-3-|
|----x-x-----------------|----x-x-----------------|
|-0--x-x-2-3-------------|-0--x-x-2-3-------------|


                      Chorus
  Gtr III
  W                     E     S  S  S  S E  H
|-------------------||---------------------------------------|
|-------------------||---------------------------------------|
|-------------------||-12b14-12-10-12-10---------------------|
|-------------------||---------------------------------------|
|-------------------||---------------------------------------|
|-------------------||---------------------------------------|
|
| Gtrs I, II
| H.      E +E          E     E     E    E  E S  S S S  S  S
|-0-----------------||---------------------------------------|
|-0-----------------||---------------------------------------|
|-2-----------------||--x---------------------x----x-x-------|
|-2-----------------||--x----------12------12-x-12-x-x-12-12-|
|-0-----------------||---------------------------------------|
|---------3-(3)b3.5-||--------0----------0-------------------|


   E       S  S  S  S E  H                  W
|-----------------------------------------|-------------------------|
|-----------------------------------------|-------------------------|
|-12b14---12-10-12-10---------------------|-------------------------|
|-----------------------------------------|-------------------------|
|-----------------------------------------|-------------------------|
|-----------------------------------------|-------------------------|
|
|  S    S  E     E    E  E S  S S S  S  S   S S E E E E S S S S S S
|-----------------------------------------|-------------------------|
|-----------------------------------------|-------------------------|
|--x----x------------------x----x-x-------|-x-x---------x---x-x-----|
|--x----x-------10------10-x-10-x-x-10-10-|-x-x---9---9-x-9-x-x-9-9-|
|-----------------------------------------|-------------------------|
|----------0----------0-------------------|-----0---0---------------|


  W                  E     S  S  S  S E  H
|-----------------|---------------------------------------|
|-----------------|---------------------------------------|
|-----------------|-12b14-12-10-12-10---------------------|
|-----------------|---------------------------------------|
|-----------------|---------------------------------------|
|-----------------|---------------------------------------|
|
| S S E E E Q  Q     E     E     E    E  E S  S S S  S  S
|-----------------|---------------------------------------|
|-----------------|---------------------------------------|
|-x-x-------------|--x---------------------x----x-x-------|
|-x-x---7---3--5--|--x----------12------12-x-12-x-x-12-12-|
|-----------3--5--|---------------------------------------|
|-----0---0-3--5--|--------0----------0-------------------|


                                            1.
   E       S  S  S  S E  H                  W
|-----------------------------------------|------------||
|-----------------------------------------|------------||
|-12b14---12-10-12-10---------------------|------------||
|-----------------------------------------|------------||
|-----------------------------------------|------------||
|-----------------------------------------|------------||
|
|  S    S  E     E    E  E S  S S S  S  S   H.      Q
|-----------------------------------------|------------||
|-----------------------------------------|-0----------||
|--x----x------------------x----x-x-------|-2----------||
|--x----x-------10------10-x-10-x-x-10-10-|-2----------||
|-----------------------------------------|-0----------||
|----------0----------0-------------------|---------3--||


 Interlude
  Gtr I
  Q  S S E E S S S S S S   Q  S S E E S S S S S S
|------------------------|------------------------|
|------------------------|------------------------|
|------------0-0-0-0-0-0-|------------0-0-0-0-0-0-|
|----x-x-----3-3-3-3-3-3-|----x-x-----3-3-3-3-3-3-|
|----x-x-----------------|----x-x-----------------|
|-0--x-x-2-3-------------|-0--x-x-2-3-------------|


  Q  S S E E S S S S S S   Q  S S E E S S S S S S
|------------------------|----------------------------||
|------------------------|---------------------------o||
|------------0-0-0-0-0-0-|------------0-0-0-0-0-0-----||
|----x-x-----3-3-3-3-3-3-|----x-x-----3-3-3-3-3-3-----||
|----x-x-----------------|----x-x--------------------o||
|-0--x-x-2-3-------------|-0--x-x-2-3-----------------||


  2.
  Gtrs I, II
  W          H    +Q.    E    H    +Q.    E    H.      E  E
|----------|----------------|----------------|----------------|
|-0--------|----------------|----------------|----------------|
|-2--------|----------------|----------------|----------------|
|-2--------|-5----(5)---(5)S|=3----(3)---(3)S|=1-------1-(1)S=|
|-0--------|-5----(5)---(5)S|=3----(3)---(3)S|=1-------1-(1)S=|
|----------|-5----(5)---(5)S|=3----(3)---(3)S|=1-------1-(1)S=|


  Gtr III
   E   E    E    E    E    E     E    E
|----------------------------------------|
|-/8\-/9\-/10\-/10\-/11\-/12\--/13\-/14\-|
|----------------------------------------|
|----------------------------------------|
|----------------------------------------|
|----------------------------------------|
|
| Gtrs I, II
|                     >    >
|  H                 +E    Q.
|----------------------------------------|
|----------------------------------------|
|----------------------------------------|
|--7-----------------(7)--(7)/-----------|
|--7-----------------(7)--(7)/-----------|
|--7-----------------(7)--(7)/-----------|


    E    E    E    E    E    E    E    E
|-----------------------------------------|
|-/14\-/15\-/16\-/16\-/19\-/20\-/20\-/20\-|
|-----------------------------------------|
|-----------------------------------------|
|-----------------------------------------|
|-----------------------------------------|
|
|   W
|-----------------------------------------|
|-----------------------------------------|
|-----------------------------------------|
|-----------------------------------------|
|-----------------------------------------|
|-----------------------------------------|


   T  T  T  T  e  T  T  T  T e  a  S  T  T  +E   T  T  T  T E
|------------------------------10s14s10s15-(15)---------------|
|-12s16s14s16s12-10s12s10s12s9--------------------------------|
|-----------------------------------------------12s13s12s13s9-|
|-------------------------------------------------------------|
|-------------------------------------------------------------|
|-------------------------------------------------------------|


                      |----3----|    |----3----|    |---3---|
   T  T  T  T S   S   E    E    E    E    E    E    E    E  E
|-----------------------------------------------------------7/-|
|-12s14s12s15---/15-/16\-/19\-/20\-/22\-/19\-/15\-/14\-/12\----|
|--------------------------------------------------------------|
|--------------------------------------------------------------|
|--------------------------------------------------------------|
|--------------------------------------------------------------|


   TP TPTP TP TP
   E  E Q  Q  E  E
|-15S22-x--x--x-22\-|
|-------------------|
|-------------------|
|-------------------|
|-------------------|
|-------------------|


   TP TPTP TP TP      TP TP TP TP TPTP TP TP TP TP TP
   E  E Q  Q  E Q     E  E  S  S  S S  S  S  E  E  E
|-15S22-x--x--x-x\--|-5S21S17S19S17-x-14S17S11S15S11-|
|-------------------|--------------------------------|
|-------------------|--------------------------------|
|-------------------|--------------------------------|
|-------------------|--------------------------------|
|-------------------|--------------------------------|


                           Verse
                            Gtrs I, II
    TP  TP  TP   TP  TP
    E   E   Q    Q   Q      Q  S S E E S S S S S S   Q  S S E E S S S S S S
|-/15-/21\-17\--12\--9\--||------------------------|-------------------------|
|------------------------||------------------------|-------------------------|
|------------------------||------------0-0-0-0-0-0-|------------0-0-0-0-0-0--|
|------------------------||----x-x-----3-3-3-3-3-3-|----x-x-----3-3-3-3-3-3--|
|------------------------||----x-x-----------------|----x-x------------------|
|------------------------||-0--x-x-2-3-------------|-0--x-x-2-3--------------|


  Q  S S E E S S S S S S   Q  S S E E S S S S S S
|------------------------|------------------------|
|------------------------|------------------------|
|------------0-0-0-0-0-0-|------------0-0-0-0-0-0-|
|----x-x-----3-3-3-3-3-3-|----x-x-----3-3-3-3-3-3-|
|----x-x-----------------|----x-x-----------------|
|-0--x-x-2-3-------------|-0--x-x-2-3-------------|


                      Chorus
                       Gtr I
  H.      E +E          E     S  S  S  S E  E S  S S S  S  S
|-0-----------------||---------------------------------------|
|-0-----------------||---------------------------------------|
|-2-----------------||-12b14-12-10-12-10------x----x-x-------|
|-2-----------------||---------------------12-x-12-x-x-12p10-|
|-0-----------------||---------------------------------------|
|---------3-(3)b3.5-||-------------------0-------------------|


   E     S  S  S  S E  E S  S S S  S  S
|---------------------------------------|
|---------------------------------------|
|-12b14-12-10-12-10------x----x-x-------|
|---------------------10-x-10-x-x-10-10-|
|---------------------------------------|
|-------------------0-------------------|


  S S E E E E S S S S S S   S S E E E Q  Q
|-------------------------|-----------------|
|-------------------------|-----------------|
|-x-x---------x---x-x-----|-x-x-------------|
|-x-x---9---9-x-9-x-x-9-9-|-x-x---7---3--5--|
|-------------------------|-----------3--5--|
|-----0---0---------------|-----0---0-3--5--|


  Gtr III
   E     S  S  S  S E  H
|---------------------------------------|
|---------------------------------------|
|-12b14-12-10-12-10---------------------|
|---------------------------------------|
|---------------------------------------|
|---------------------------------------|
|
| Gtrs I, II
|  E     E     E    E  E S  S S S  S  S
|---------------------------------------|
|---------------------------------------|
|--x---------------------x----x-x-------|
|--x----------12------12-x-12-x-x-12-12-|
|---------------------------------------|
|--------0----------0-------------------|


   E       S  S  S  S E  H                  W
|-----------------------------------------|-------------------------|
|-----------------------------------------|-------------------------|
|-12b14---12-10-12-10---------------------|-------------------------|
|-----------------------------------------|-------------------------|
|-----------------------------------------|-------------------------|
|-----------------------------------------|-------------------------|
|
|  S    S  E     E    E  E S  S S S  S  S   S S E E E E S S S S S S
|-----------------------------------------|-------------------------|
|-----------------------------------------|-------------------------|
|--x----x------------------x----x-x-------|-x-x---------x---x-x-----|
|--x----x-------10------10-x-10-x-x-10-10-|-x-x---9---9-x-9-x-x-9-9-|
|-----------------------------------------|-------------------------|
|----------0----------0-------------------|-----0---0---------------|


  W                  E     S  S  S  S E  H
|-----------------|---------------------------------------|
|-----------------|---------------------------------------|
|-----------------|-12b14-12-10-12-10---------------------|
|-----------------|---------------------------------------|
|-----------------|---------------------------------------|
|-----------------|---------------------------------------|
|
| S S E E E Q  Q     E     E     E    E  E S  S S S  S  S
|-----------------|---------------------------------------|
|-----------------|---------------------------------------|
|-x-x-------------|--x---------------------x----x-x-------|
|-x-x---7---3--5--|--x----------12------12-x-12-x-x-12-12-|
|-----------3--5--|---------------------------------------|
|-----0---0-3--5--|--------0----------0-------------------|


   E       S  S  S  S E  H
|------------------------------------------|
|------------------------------------------|
|-12b14---12-10-12-10----------------------|
|------------------------------------------|
|------------------------------------------|
|------------------------------------------|
|
|  S    S  E     E    E  E S  S S S  S  S
|------------------------------------------|
|------------------------------------------|
|--x----x------------------x----x-x--------|
|--x----x-------10------10-x-10-x-x-10-10--|
|------------------------------------------|
|----------0----------0--------------------|


  W                         W
|-------------------------|-----------------|
|-------------------------|-----------------|
|-------------------------|-----------------|
|-------------------------|-----------------|
|-------------------------|-----------------|
|-------------------------|-----------------|
|
| S S E E E E S S S S S S   S S E E E Q  Q
|-------------------------|-----------------|
|-------------------------|-----------------|
|-x-x---------x---x-x-----|-x-x-------------|
|-x-x---9---9-x-9-x-x-9-9-|-x-x---7---3--5--|
|-------------------------|-----------3--5--|
|-----0---0---------------|-----0---0-3--5--|


   E     S  S  S  S E  H
|---------------------------------------|
|---------------------------------------|
|-12b14-12-10-12-10---------------------|
|---------------------------------------|
|---------------------------------------|
|---------------------------------------|
|
|  E     E     E    E  E S  S S S  S  S
|---------------------------------------|
|---------------------------------------|
|--x---------------------x----x-x-------|
|--x----------12------12-x-12-x-x-12-12-|
|---------------------------------------|
|--------0----------0-------------------|


   E       S  S  S  S E  H
|-----------------------------------------|
|-----------------------------------------|
|-12b14---12-10-12-10---------------------|
|-----------------------------------------|
|-----------------------------------------|
|-----------------------------------------|
|
|  S    S  E     E    E  E S  S S S  S  S
|-----------------------------------------|
|-----------------------------------------|
|--x----x------------------x----x-x-------|
|--x----x-------10------10-x-10-x-x-10-10-|
|-----------------------------------------|
|----------0----------0-------------------|


  W                         W
|-------------------------|-------------------||
|-------------------------|-------------------||
|-------------------------|-------------------||
|-------------------------|-------------------||
|-------------------------|-------------------||
|-------------------------|-------------------||
|
| S S E E E E S S S S S S   S S E E E Q  Q
|-------------------------|-------------------||
|-------------------------|-------------------||
|-x-x---------x---x-x-----|-x-x---------------||
|-x-x---9---9-x-9-x-x-9-9-|-x-x---7---3--5----||
|-------------------------|-----------3--5----||
|-----0---0---------------|-----0---0-3--5----||


 Outro
  Gtrs I, II
  E E  E E  E S  S S S  S  S
|----------------------------|
|----------------------------|
|-x-----------x----x-x-------|
|-x---12---12-x-12-x-x-12-12-|
|----------------------------|
|---0----0-------------------|


  S S E  E E  E S  S S S  S  S   S S E E E E S S S S S S
|------------------------------|---------------------------|
|------------------------------|---------------------------|
|-x-x-----------x----x-x-------|-x-x---------x---x-x-------|
|-x-x---10---10-x-10-x-x-10-10-|-x-x---9---9-x-9-x-x-9-9---|
|------------------------------|---------------------------|
|-----0----0-------------------|-----0---0-----------------|


  S S E E E Q  Q    E E  E E  E S  S S S  S  S
|-----------------|----------------------------|
|-----------------|----------------------------|
|-x-x-------------|-x-----------x----x-x-------|
|-x-x---7---3--5--|-x---12---12-x-12-x-x-12-12-|
|-----------3--5--|----------------------------|
|-----0---0-3--5--|---0----0-------------------|


  S S E  E E  E S  S S S  S  S   S S E E E E S S S S S S
|------------------------------|-------------------------*|
|------------------------------|-------------------------*|
|-x-x-----------x----x-x-------|-x-x---------x---x-x-----*|
|-x-x---10---10-x-10-x-x-10-10-|-x-x---9---9-x-9-x-x-9-9-*|
|------------------------------|-------------------------*|
|-----0----0-------------------|-----0---0---------------*|


Duration Legend
---------------
W - whole; H - half; Q - quarter; E - 8th; S - 16th; T - 32nd; X - 64th; a - acciaccatura
+ - note tied to previous; . - note dotted; .. - note double dotted
Uncapitalized letters represent notes that are staccato (1/2 duration)
Irregular groupings are notated above the duration line
Duration letters will always appear directly above the note/fret number it represents the
duration for.  Duration letters with no fret number below them represent rests.  Multi-
bar rests are notated in the form Wxn, where n is the number of bars to rest for.  Low
melody durations appear below the staff

Tablature Legend
----------------
 h   - hammer-on
 p   - pull-off
 b   - bend
 pb  - pre-bend
 r   - bend release (if no number after the r, then release immediately)
 /\  - slide into or out of (from/to "nowhere")
 s   - legato slide
 S   - shift slide
  - natural harmonic
[n]  - artificial harmonic
n(n) - tapped harmonic
 ~   - vibrato
 tr  - trill
 T   - tap
 TP  - trem. picking
 PM  - palm muting
\n/  - tremolo bar dip; n = amount to dip
 \n  - tremolo bar down
 n/  - tremolo bar up
/n\  - tremolo bar inverted dip
 =   - hold bend; also acts as connecting device for hammers/pulls
 <>  - volume swell (louder/softer)
 x   - on rhythm slash represents muted slash
 o   - on rhythm slash represents single note slash

Misc Legend
-----------
 |  - bar
||  - double bar
||o - repeat start
o|| - repeat end
*|  - double bar (ending)
 :  - bar (freetime)
 $  - Segno
 &  - Coda
Tempo markers -  = BPM(8/16=s8/s16), where s8 = swing 8ths, s16 = swing 16ths


Добавлено: 04.03.2012
Другие материалы по этой песне:

Страница создана 22.02.2012
http://primanota.ru/audioslave/jewel-of-the-summertime-chords.htm
Привет, Гость.
Предлагаем пройти революционный курс по гитаре.
Подарок от PrimaNota.Ru, забирай!