PrimaNota.ru - самый крупный в мире бесплатный архив песенных текстов, аккордов, табулатур и нот


Audioslave - Chocise - таба, видео

Регистрация Запомнить меня
Войти через:  Facebook Google Twitter Vk Yandex Mail.ru

Audioslave - Chocise - таба, видео

Печатать
Просмотров: 77
this song is great, its easy and nice.. this is my 1st tab so if theres anything wrong 
tell me.. and im just 13 years old so,, gud luck

most of the songs guitar is this-
------------------------------------------|
------------------------------------------|
------------------------------------------|do this as much as you like
------------------------------------------|
-5h/7-5---5-----------------5h/7-5--------|
--------7---7--5--0---------------7-5-0---|

                        A Am
------------------------------------------|
------------------------------------------|
------------------------7-8---------------|
------------------------7-8---------------|
--5h/7-5---5------------5-6---------------|
---------7---7--5--0----------------------|
                  that i can offer


this one comes after the 2 chords
------------------------------------------|
------------------------------------------|
------------------------------------------|keep continuing this till it goes
------------------------------------------|back to the first part
---5h/7-5h/7--5---------------------------|
----------------7-0~-3-5-7----------------|

------------------------------------------|
------------------------------------------|
------------------------------------------|keep duin this till the other
--88b988b7b88b988b988b788b9---------------|fast bit
------------------------------------------|
------------------------------------------|
in this whole 2 fast bits, bend it to make it sound like youre using a whammy bar..

------------------------------------------|
--11b1211b1011b1211b1011b1211b10----------|"b" means bend until it sound
------------------------------------------|like the fret after or before
------------------------------------------|
------------------------------------------|
------------------------------------------|


------------------------------------------|
------------------------------------------|
------------------------------------------|
------------------------------------------|
-5h/7-5---5-----------------5h/7-5--------|
--------7---7--5--0---------------7-5-0---|

------------------------------------------|
------------------------------------------|
------------------------------------------|
------------------------------------------|
---5h/7-5h/7--5---------------------------|
----------------7-0~-3-5-7----------------|

--------------------------------| 4X/8X
--------------------------------|
---2h/5---2h/5------------------|
--------------------------------|
-------2------2-----------------|
--------------------------------|

--------------------------------|3X
--------------------------------|
--------------------------------|
--------------------------------|
---5h/7---5h/7------------------|
-------0------0-----------------|


------------------------------------------|
------------------------------------------|
----------9-------------------------------|
----------9-------------------------------|
---5h/7---7-------------------------------|
------------------------------------------|

most of the songs guitar is this-
------------------------------------------|
------------------------------------------|
------------------------------------------|do this as much as you like
------------------------------------------|
-5h/7-5---5-----------------5h/7-5--------|
--------7---7--5--0---------------7-5-0---|

                        A Am
------------------------------------------|
------------------------------------------|
------------------------7-8---------------|
------------------------7-8---------------|
--5h/7-5---5------------5-6---------------|
---------7---7--5--0----------------------|
                  that i can offer


this one comes after the 2 chords
------------------------------------------|
------------------------------------------|
------------------------------------------|keep continuing this till it goes
------------------------------------------|back to the first part
---5h/7-5h/7--5---------------------------|
----------------7-0~-3-5-7----------------|

------------------------------------------|
------------------------------------------|
------------------------------------------|keep duin this till the other
--88b988b7b88b988b988b788b9---------------|fast bit
------------------------------------------|
------------------------------------------|
in this whole 2 fast bits, bend it to make it sound like youre using a whammy bar..

------------------------------------------|
--11b1211b1011b1211b1011b1211b10----------|"b" means bend until it sound
------------------------------------------|like the fret after or before
------------------------------------------|
------------------------------------------|
------------------------------------------|


------------------------------------------|
------------------------------------------|
------------------------------------------|
------------------------------------------|
-5h/7-5---5-----------------5h/7-5--------|
--------7---7--5--0---------------7-5-0---|

------------------------------------------|
------------------------------------------|
------------------------------------------|
------------------------------------------|
---5h/7-5h/7--5---------------------------|
----------------7-0~-3-5-7----------------|

--------------------------------| 4X/8X
--------------------------------|
---2h/5---2h/5------------------|
--------------------------------|
-------2------2-----------------|
--------------------------------|

--------------------------------|3X
--------------------------------|
--------------------------------|
--------------------------------|
---5h/7---5h/7------------------|
-------0------0-----------------|


------------------------------------------|
------------------------------------------|
----------9-------------------------------|
----------9-------------------------------|
---5h/7---7-------------------------------|
------------------------------------------|


---------------------------------------------|
---------------------------------------------|
---------------------------------------------|
---------------------------------------------|
---5h/7-5h/7--5------------------------------|
--------7--------7-0~-3-5-7------------------|ending part
Добавлено: 31.10.2013
Другие материалы по этой песне:
  • Аккорды и текст

Страница создана 31.10.2013
http://primanota.ru/audioslave/chocise-chords.htm
Привет, Гость.
Предлагаем пройти революционный курс по гитаре.
Подарок от PrimaNota.Ru, забирай!