PrimaNota.ru - самый крупный в мире бесплатный архив песенных текстов, аккордов, табулатур и нот


Audioslave - Be yourself guitar - таба, видео

Регистрация Запомнить меня
Войти через:  Facebook Google Twitter Vk Yandex Mail.ru

Audioslave - Be yourself guitar - таба, видео

Печатать
Просмотров: 291


-------------------------------------------------------------------------------
			     Be Yourself (guitar solo) - Audioslave
-------------------------------------------------------------------------------
Tabbed by: Vasya Kochura
Email: mr_viscus41@yahoo.com

Tuning: Standard tuning ( EADGBE )

This song is already tabbed out but i noticed that the solo was
missing so i decided to tab it out. Tom uses a Dunlop CryBaby wah-wah
pedal in this song every time he hits each note so make sure you have this, or
a different pedal with a similar effect, when you play this solo.


(solo played after 2nd chorus)

e|---------------------------------------------------------------------------|
B|---------------------------------------------------------------------------|
G|---------------------------------------------------------------------------|
D|-----------------------------------------------------7-5-4-2-4-4-4-4-------|
A|--2-4-5-7-9-7-5-4-2-4-5-7-5-4-2-0-2-4-5-7-9-10-9-10------------------------|
E|---------------------------------------------------------------------------|




e|---------------------------------------------------------------------------|
B|---------------------------------------------------------------------------|
G|---------------------------------------------------------7-9-7-------------|
D|--79--9--12/9--9--79--9--12/9--9--79--9--12/9--9--7-9-------9-7-9-------|
A|---------------------------------------------------------------------------|
E|---------------------------------------------------------------------------|




e|---------------------------------------------------------------------------|
B|---------------------------------------------------------------------------|
G|----------79--9----------79--9--11-9-11-9-11-9-7-9-7---------------------|
D|--79--9----------79--9-------------------------------9-7-9---------------|
A|-----------------------------------------------------------^---------------|
E|-----------------------------------------------------------^---------------|
							     ^
							     ^ ( let last note ring )

 That's it 
 Enjoy 


 Key:

| /  slide up
|   slide down
| h  hammer-on
| p  pull-off
| ~  vibrato
| +  harmonic
| x  Mute note
===============================================================================




Добавлено: 17.11.2013
Другие материалы по этой песне:
  • Аккорды и текст

Страница создана 17.11.2013
http://primanota.ru/audioslave/be-yourself-guitar-chords.htm
Привет, Гость.
Предлагаем пройти революционный курс по гитаре.
Подарок от PrimaNota.Ru, забирай!