PrimaNota.ru - самый крупный в мире бесплатный архив песенных текстов, аккордов, табулатур и нот


Audio Karate - Nintendo 89 - аккорды и текст, таба, видео

Регистрация Запомнить меня
Войти через:  Facebook Google Twitter Vk Yandex Mail.ru

Audio Karate - Nintendo 89 - аккорды и текст, таба, видео

Печатать
Просмотров: 195
Уроки эстрадного вокала в Санкт-Петербурге
Nintendo 89
Audio Karate
		   Artist: Audio Karate
Song name: Nintendo 89
Album: Space Camp

Tabbed by: Josh
Email: innervision@rock.com

I think this is the first tab for "Nintendo 89" on the net. It might not
be 100% accurate, but it's the best I could do as the song is quite hard
to figure out! I'm not sure about how many times you hit every note, but
most of the chords should be right!

Explainations:

h - hammer on
p - pull off
b - bend string up
/ - slide up
\ - slide down
~ - let note ring

Intro

e|--------14-16-14--------|
B|-----12----------12-----|
G|--13----------------13--|
D|------------------------| (7x)
A|------------------------|
E|------------------------|


e|--19-----------|
B|-----19--------|
G|--------16-13--|
D|---------------|
A|---------------|
E|---------------|

e|--------------------|       e|-------------------------------------------|
B|--------------------|       B|-------------------------------------------|
G|--16-------8--------|       G|--16-------8-8--8-8-8-8-8-8--8-8-8--8\4p0--|
D|--x--(16x)-x-(16x)--| (3x)  D|--x--(16x)-x-x--x-x-x-x-x-x--x-x-x--x\x----|
A|--14-------6--------|       A|--14-------6-6--6-6-6-6-6-6--6-6-6--6\2p0--|
E|--------------------|       E|-------------------------------------------|


During this part the 2nd guitar comes in with pick scrape on E string


Main Riff

Guitar 1:

e|---------------------|       e|---------------------|
B|---------------------|       B|---------------------|
G|--6/8-8--6/8-8--6/8--|       G|--6/11-9-8-9-11-9-8--|
D|--x/x-x--x/x-x--x/x--| (3x)  D|--x/x--x-x-x-x--x-x--|
A|--4/6-6--4/6-6--4/6--|       A|--4/9--7-6-7-9--7-6--|
E|---------------------|       E|---------------------|


Guitar 2 (palm muted):

e|----------------------------|
B|----------------------------|
G|--8---------------11--------|
D|--8-(16x)-6-------11-(16x)--|
A|--6-------6-(16x)-9---------|
E|----------4-----------------|


Verse (2x)

Guitar 1 (palm muted):

e|----------------------------------------|       e|-----------------------|
B|----------------------------------------|       B|-----------------------|
G|--11-11-11---------11-11-11-11-8-8-9-9--|       G|--11-11-11-11-9-9-8-8--|
D|-----------9-9-9-9----------------------| (3x)  D|-----------------------|
A|----------------------------------------|       A|-----------------------|
E|----------------------------------------|       E|-----------------------|


Guitar 2:

e|-------------------|       e|----------------|
B|-------------------|       B|----------------|
G|--11-11-11-11-8h9--|       G|--8h9h8-11-9h8--|
D|-------------------| (3x)  D|----------------|
A|-------------------|       A|----------------|
E|-------------------|       E|----------------|


Chorus

Guitar 1:

e|--------------------|       e|-------------------------------------------|
B|--------------------|       B|-------------------------------------------|
G|--16-------8--------|       G|--16-------8-8--8-8-8-8-8-8--8-8-8--8\4p0--|
D|--x--(16x)-x-(16x)--| (3x)  D|--x--(16x)-x-x--x-x-x-x-x-x--x-x-x--x\x----|
A|--14-------6--------|       A|--14-------6-6--6-6-6-6-6-6--6-6-6--6\2p0--|
E|--------------------|       E|-------------------------------------------|

Guitar 2:

e|---------------------------|
B|--17b18-17b18-16b17-14b15--|
G|---------------------------|
D|---------------------------|
A|---------------------------|
E|---------------------------|


e|----------------------------|
B|----------------------------|
G|--8-8h9h11h8-8h9h11-8h9h11--|
D|----------------------------|
A|----------------------------|
E|----------------------------|


Main Riff


Verse (2x)


Chorus


Bridge

Guitar 1:

e|--------------------------|
B|--------------------------|
G|--11------13------8-------|
D|--x--(7x)-x--(5x)-x-(5x)--| (4x)
A|--9-------11------6-------|
E|--------------------------|


Guitar 2 (comes in with pick scrape on E string):

e|------------------------------------------|
B|--12h14h12-15b16-16b17-14b15-13b14-11b12--|
G|------------------------------------------|
D|------------------------------------------|
A|------------------------------------------|
E|------------------------------------------|


e|----------|
B|--15b16~--|
G|----------|
D|----------|
A|----------|
E|----------|


C pick scrape on E string


Outro

Guitar 1:

e|---------------------|       e|------------------------|
B|---------------------|       B|------------------------|
G|--6/8-8--6/8-8--6/8--|       G|--11-11-9-8--11-11-9-8--|
D|--x/x-x--x/x-x--x/x--| (2x)  D|--x--x--x-x--x--x--x-x--| (2x)
A|--4/6-6--4/6-6--4/6--|       A|--9--9--7-6--9--9--7-6--|
E|---------------------|       E|------------------------|


e|----------------------------------------|
B|----------------------------------------|
G|--11-11-11--11-11-11--11-11-11--11-11~--|
D|--x--x--x---x--x--x---x--x--x---x--x-~--|
A|--9--9--9---9--9--9---9--9--9---9--9-~--|
E|----------------------------------------|


Guitar 2:

e|--------------|
B|--------------|
G|----------4~--|
D|--6~--2~--4~--| (2x)
A|--6~--2~--2~--|
E|--4~--0~------|


Guitar 1 keeps messing with the main riff a while then plays:

e|-----------------------------------|
B|-----------------------------------|
G|--11-----9------8------9------8/9--|
D|--x-(8x)-x-(8x)-x-(8x)-x-(4x)-x/x--| (4x)
A|--9------7------6------7------6/7--|
E|-----------------------------------|


Then play first part of the Main Riff 2 more times


And here goes the final part:

e|-------------------------------|
B|-------------------------------|
G|--11~--9~--8~----11~--13~--8~--|
D|--x-~--x~--x~----x-~--x-~--x~--|
A|--9-~--7~--6~----9-~--11~--6~--|
E|-------------------------------|

That's it! Questions or comments? Mail to innervision@rock.com     
Добавлено: 16.01.2014
Другие материалы по этой песне:
  • Аккорды и текст

Страница создана 10.05.2012
http://primanota.ru/audio-karate/nintendo-89-chords.htm
Привет, Гость.
Предлагаем пройти революционный курс по гитаре.
Подарок от PrimaNota.Ru, забирай!