PrimaNota.ru - самый крупный в мире бесплатный архив песенных текстов, аккордов, табулатур и нот


Audio Adrenaline - What You Need - текст песни, таба, видео

Регистрация Запомнить меня
Войти через:  Facebook Google Twitter Vk Yandex Mail.ru

Audio Adrenaline - What You Need - текст песни, таба, видео

Печатать
Просмотров: 82
		   Author/Artist: Audio Adrenaline
Title: What You Need
Album: Live Bootleg 
Transcribed by: Matt Smyczynski
Email: atomshroom@hotmail.com


Hey!  This song is also on their debut album, but the way I transcribed
it sounds more like bootleg, since I was listening to that one when I
figured it out.


--------------------------------------
--------------------------------------
--------------------------------------
--------------------------------------
-7-7-9-9-7-7-7------------------------
---------------0----------------------
Intro          (x2)(keyboard fill)                                           


--------------------------------------
--------------------------------------
--------------------------------------
-7/9-x-x-x-7/9------------------------
-5/7-x-x-x-5/7------------------------
--------------------------------------
Post intro   (repeat)                                                        


-----7--------------------------------
-----8--------------------------------
-----9--------------------------------
-----9--------------------------------
-----7--------------------------------
-0-0----------------------------------
Verse (play with chord)                                                      


---|---|---|--------------------------
---|---|---|--------------------------
---|---|---|--------------------------
-2-|-5-|-7-|-9------------------------
-0-|-3-|-5-|-7------------------------
---|---|---|--------------------------
Pre chorus                                                                   


------|--|-------------|--------|-------------------|
------|--|-------------|--------|-------------------|
----9-|-7|--10-10-8-8--|--------|-------------------|
----9-|-7|-----------10|-2-----5|-------------------|
----7-|-5|-------------|-0-----3|-------------------|
-0----|--|-------------|--------|-0-0-3-0--0-0-0-3-0|
Chorus                                                                       


-----------------------------------------------------
-----------------------------------------------------
-----------------------------------------------------
-----------------------------------------------------
-2-2----------2--------------------------------------
-0-0-x-x-x-3b-0--------------------------------------
Bridge (palm muted, mostly, add cool licks)         


Verse:
You don't need to have it all, you don't even need a lot
You don't need to be a doctor, a judge or astronaut


You don't need to be a hero, you don't need a lot of cash 
You don't need a fancy car, you don't need to be a smash


Pre-chorus:
You need someone you can count on
Someone you can trust
Someone who is loving
And your life you will entrust


Chorus:
It's not who you are, it's who you know
It's not where you've been it's where you'll go
It's not how you look, it's how you see
It's not what you want, it's what you need
What you need is a friend


Verse:
A victim or a villian, your life has been a mess
Your past is full of sorrow, you've had nothing but distress


It don't matter if you're poor, it don't matter if you're weak
It don't matter if the years, have been hard on your physique


Pre-chorus:
There's one that you can go to
That will save you from your sin
Jesus is your friend
No matter where you've been


Chorus


Bridge:
I am the Way the Truth the Life, and
There is no other way to the Father, except by me
[on bootleg he does this "yeah yeah yeah!" thing, slam D and Em chords,
I think, my guitar isn't here right now
Debut album has guitar solo]
This song is in the key of G     
Добавлено: 26.11.2013
Другие материалы по этой песне:
  • Аккорды и текст

Страница создана 09.06.2012
http://primanota.ru/audio-adrenaline/what-you-need-chords.htm
Привет, Гость.
Предлагаем пройти революционный курс по гитаре.
Подарок от PrimaNota.Ru, забирай!